Peter Murphy - Idle Flow Chords & Tabs

 

Idle Flow Chords & Tabs

Peter Murphy Chords & Tabs

Version: 1 Type: Bass Tab 0 ratings
1 star 2 stars 3 stars 4 stars 5 stars
comments

Idle Flow Bass Tab

   
-------------------------------------------------------------------------------
                          IDLE FLOW - PETER MURPHY
-------------------------------------------------------------------------------
Tabbed by: Myself
E-mail: h.abualtin@yahoo.com

Tuning: Standard

Idle Flow off of Unshattered. I believe the original version on Rambient's
album "So Many Worlds" has the same bass line (there are only very minor
differences between the two versions and both feature vocals from Peter). Enjoy!


G|---------------------------------------------------------------------------|
D|---------------------------------------------------------------------------|
A|---45667-77---45667-77------7-77----45667-77-------(PAUSE)-----------------|
E|---------------------------------------------------------------------------|

                                            "Idle flow..."
G|---------------------------------------------------------------------------|
D|---------------------------------------------------------------------------|
A|---7-77---45667-77------7-77----45667-77----45667-77--------45667-77-------|
E|---------------------------------------------------------------------------|

G|---------------------------------------------------------------------------|
D|---------------------------------------------------------------------------|
A|---7-77---45667-77----45667-77---45667-77-----7-77----45667-77----(PAUSE)--|
E|---------------------------------------------------------------------------|

G|---------------------------------------------------------------------------|
D|---------------------------------------------------------------------------|
A|---7-77---45667-77---7-77---45667-77--45667-77---45667-77---7-77--45667-77-|
E|---------------------------------------------------------------------------|
[ Tab from: http://www.guitartabs.cc/tabs/p/peter_murphy/idle_flow_btab.html ]
G|-----------------------|
D|-----------------------|
A|---7----7-----7-----7--| (this might have been done on a synth in the
E|-----------------------| recording)

    CHORUS (play 4X total)
G|---------------------------------------------------------------------------|
D|---------------------------------------------------------------------------|
A|---------------------------------------------------------------------------|
E|---0-0-0-00-00-0-0-7-7-7-77-77-7-7-5-5-5-55-55-5-5-5-5-5-55-55-5-5---------|

G|---------------------------------------------------------------------------|
D|---------------------------------------------------------------------------|
A|---45667-77---45667-77----7-77---45667-77----7-77--45667-77------7-77------|
E|---------------------------------------------------------------------------|

G|---------------------------------------------------------------------------|
D|---------------------------------------------------------------------------|
A|---45667-77---45667-77---45667-77----7-77---45667-77-----------------------|
E|---------------------------------------------------------------------------|

G|-----------------------|
D|-----------------------|
A|---7----7-----7-----7--| (this might have been done on a synth in the
E|-----------------------| recording)

  CHORUS/OUTRO (repeat until it fades out at the end, which is about 12X total)
G|---------------------------------------------------------------------------|
D|---------------------------------------------------------------------------|
A|---------------------------------------------------------------------------|
E|---0-0-0-00-00-0-0-7-7-7-77-77-7-7-5-5-5-55-55-5-5-5-5-5-55-55-5-5---------|



| /  slide up
| \  slide down
| h  hammer-on
| p  pull-off
| ~  vibrato
| +  harmonic
| x  Mute note
===============================================================================
Comments