Peter Murphy - Cuts You Up Chords & Tabs

 

Cuts You Up Chords & Tabs

Peter Murphy Chords & Tabs

Version: 2 Type: Tab 0 ratings
1 star 2 stars 3 stars 4 stars 5 stars
comments

Cuts You Up Tab

   
-------------------------------------------------------------------------------
			  Cuts You Up - Peter Murphy
-------------------------------------------------------------------------------
Tabbed by: Myself
Email: cpochie92@gmail.com

Tuning: Standard

After checking this against numerous live performance videos and playing
along to the studio version, I'm confident that this is correct. Play clean
or ideally on a twelve-string acoustic.

Violin Riff:

I've tabbed this in the range of the violin, although Mark Thwaite plays
it up an octave live on the guitar.

      Cadd9             D              E5       (E5)
e|-------------|-------------------|-------|-----------|
B|-------------|----------5--3--5--|-------|-----------|
G|-------4--7--|--(7)--4-----------|--4----|-----------|
D|----5--------|-------------------|-------|--5--7--5--|
A|-7-----------|-------------------|-------|-----------|
E|-------------|-------------------|-------|-----------|

e|-------------|-------------------|-------------|----------|
B|-------------|----------5--3--5--|--5--12------|----------|
G|-------4--7--|--(7)--4-----------|---------12--|--14--12--|
D|----5--------|-------------------|-------------|----------|
A|-7-----------|-------------------|-------------|----------|
E|-------------|-------------------|-------------|----------|

e|-------------|-------------------|-------|-----------|
B|-------------|----------5--3--5--|-------|-----------|
G|-------4--7--|--(7)--4-----------|--4----|-----------|
D|----5--------|-------------------|-------|--5--7--5--|
A|-7-----------|-------------------|-------|-----------|
E|-------------|-------------------|-------|-----------|
[ Tab from: http://www.guitartabs.cc/tabs/p/peter_murphy/cuts_you_up_tab_ver_2.html ]
e|-------------|------------|--------|--------|-----|
B|-------------|------------|--5--3--|--------|-----|
G|-------4--7--|--(7)----4--|--------|--4-----|-----|
D|----5--------|------------|--------|-----7--|--5--|
A|-7-----------|------------|--------|--------|-----|
E|-------------|------------|--------|--------|-----|

Verse chords:
Just three repeating, in this order:


   Cadd9         D           E5 (Open)
e|---0---|  e|---2---|   e|---0---| 
B|---3---|  B|---3---|   B|---0---|
G|---0---|  G|---2---|   G|---4---|
D|---2---|  D|---0---|   D|---2---|
A|---3---|  A|-------|   A|---2---|
E|---0---|  E|-------|   E|---0---|


Cadd9          D              E5
I find you in the morning / After dreams of distant signs


Chorus chords:
Very simple, take the verse chords and reverse the order.

E5                 D                 Cadd9
You know the way / it throws about / it takes you in and spits you out


Bridge/Outro Chords:
The bridge follows the second and last chorus. The song ends on Bbsus2.


     G        Bbsus2        Cadd9                  
e|---3---|  e|---1---|   e|---0---| 
B|---3---|  B|---1---|   B|---3---|
G|---0---|  G|---3---|   G|---0---|
D|---0---|  D|---3---|   D|---2---|
A|---2---|  A|---1---|   A|---3---|
E|---3---|  E|---1---|   E|---0---|


G           Bbsus2              Cadd9
It's okay / it goes this way / the line is thin, it twists away

************************************

| /   slide up
| \   slide down
| h   hammer-on
| p   pull-off
| ~   vibrato
| +   harmonic
| x   Mute note
| b   Bend
| pb  Pre-bend
| br  Bend release
| pbr Pre-bend release
| brb Bend release bend

************************************
Comments