Peter Gabriel - In Your Eyes Chords & Tabs

 

In Your Eyes Chords & Tabs

Peter Gabriel Chords & Tabs

Version: 2 Type: Tab 0 ratings
1 star 2 stars 3 stars 4 stars 5 stars
comments

In Your Eyes Tab

Peter Gabriel - In your eyes
Tabbbed by M. Chaouach
[ Tab from: http://www.guitartabs.cc/tabs/p/peter_gabriel/in_your_eyes_tab_ver_2.html ]
e---2---2--2---2---2--2---0--0---2--2--3p2--2--3--3--3p2----|
B---3---3--3---3---3--3---2--2---3--3--3----3--3--3--3(3)---|
G---4---4--4---4---4--4---2--2---2--2--2----2--2--2--2(2)---|
D---4---4--4---4---4--4---2--2---0--0-------0--0--0--0------|
A---2---2--2---2---2--2---0--0------------------------------|
E-----------------------------------------------------------|


e---2---2--2---2---2--2---0--0---2--2--3p2--2--3--3--3p2----|
B---3---3--3---3---3--3---2--2---3--3--3----3--3--3--3(3)---|
G---4---4--4---4---4--4---2--2---2--2--2----2--2--2--2(2)---|
D---4---4--4---4---4--4---2--2---0--0-------0--0--0--0------|
A---2---2--2---2---2--2---0--0------------------------------|
E-----------------------------------------------------------|
Comments