Peter Gabriel - In Your Eyes Chords & Tabs

 

In Your Eyes Chords & Tabs

Peter Gabriel Chords & Tabs

Version: 1 Type: Bass Tab 0 ratings
1 star 2 stars 3 stars 4 stars 5 stars
comments

In Your Eyes Bass Tab

Ok, there were no bass tabs out there for this song, and the one's I could find were
way off or made too difficult.  This is a great slow song with some notes hitting harder
others.  So I made this tab real easy just accenting the heavier notes, and keeping 
with the song.. that's all you need to do as the bass player, especially for this song.
great acoustic or full band..  please rate!  (remember just hit these notes once each 
let them ring out.. you will feel it and know when)

INTRO
G-----------------------------------------------------|
D-----------------------------------------------------| x4
A-----5~----------------------------------------------|
E-7~--------------------------------------------------|

[ Tab from: http://www.guitartabs.cc/tabs/p/peter_gabriel/in_your_eyes_btab.html ]
VERSE
G-----------------------------------------------------|
D-----------------------------------------------------|
A-------5~--------------------------------------------| x4
E--7~---------7~-------3~-----------------------------|


BRIDGE/PRE-CHORUS
G----------------           G-----------------------|
D----------------           D-----------------------| (hit the G a few times)
A---------------- x4 then   A-----------------------|
E--5~-----3~-----           E----3~----3~-----------|


CHORUS
G-------------------         G-----------------|
D-------------------         D-----------------|
A---7~----5~-------- x4 then A---7~----7~------| (hit the E a few times)
E-------------------         E-----------------|

then repeat all of this a 2nd time in the same order
INTRO
VERSE
BRIDGE
CHORUS

there really is no strumming going on here, just pluck and let the note ring out and
the change.  Once again just really accenting notes here and adding some bass.  Nothing too
with this song.  It sounds good though, and gets the job done.  Please rate and let me 
if you have any questions/comments.  Thanks
Comments