Peter Frampton - Baby I Love Your Way Chords & Tabs

 

Peter Frampton Chords & Tabs

Version: 1 Type: Tab 0 ratings
1 star 2 stars 3 stars 4 stars 5 stars
comments

Baby I Love Your Way Tab

Song:Baby I love your way
Artist:Peter Frampton
Tabbed by: Carlos Ramirez
E-mail: crmrz@hotmail.com
Tuning: EADGBe


 I watched him live at Hard Rock and this is how he does it:


INTRO:

e|----x------x------x--------x---x---x------7------5-------7---------|
B|----12-----10-----8--------8---7---5------7------5-------5---------|
G|----0------0------0--------0---0---0------7------5-------5---------|
D|----x------x------x--------x---x---x------7------5-------5---------|
A|----10-----9------7--------7---5---3------9------7-------5---------|
E|----x------x------x--------x---x---x------7------5-------x---------|

VERSE:

e|------x--------------x-------------x--------x-------x-------8---------|
B|------12-------------10------------8--------7-------5-------8---------|
G|------0--------------0-------------0--------0-------0-------8---------|
D|------x--------------x-------------x--------x-------x-------7---------|
A|------10-------------9-------------7--------5-------3-------8---------|
E|------x--------------x-------------x--------x-------x-----------------|
     shadows grow so long before my eyes and they're moving across the page
     suddenly  the   day turns into night    far     away from the city
[ Tab from: http://www.guitartabs.cc/tabs/p/peter_frampton/baby_i_love_your_way_tab.html ]
e|--------7--------0-----------------5----------0-----------------------|
B|--------7--------5-----------------5----------3-----------------------|
G|--------7--------7-----------------5----------5-----------------------|
D|--------7--------6-----------------5----------4-----------------------|
A|--------x--------7-----------------x----------5-----------------------|
E|--------7--------0-----------------5----------------------------------|
     but don't hesitate 'cause your love won't wait


CHORUS:

e|----3----------2---------------------0-------0------------------------|
B|----0----------3---------------------1-------1------------------------|
G|----0----------2---------------------2-------0------------------------|
D|----0----------0---------------------2-------2------------------------|
A|----2--------------------------------0-------3------------------------|
E|----3-----------------------------------------------------------------|
           oh    baby     I love your way
           wanna tell you I love your way
           wanna be with you night and day

   intro, verse, chorus, instrumental part(same as verse,2x),verse, chorus


OUTRO:
e|-------x-----x----x------x--x--x------x--x--0-------3-----------------|
B|-------12----10---8------8--7--5------5--3--1-------0-----------------|
G|-------0-----0----0------0--0--0------0--0--0-------0-----------------|
D|-------x-----x----x------x--x--x------x--x--2-------0-----------------|
A|-------10----9----7------7--5--3------3--2--0-------2-----------------|
E|-------x-----x----x------x--x--x------x--x--x-------3-----------------|

Comments