Peter Belli - Nok Af Dig Chords & Tabs

 

Nok Af Dig Chords & Tabs

Peter Belli Chords & Tabs

Version: 1 Type: Tab 1 rating
1 star 2 stars 3 stars 4 stars 5 stars
comments

Nok Af Dig Tab

   
Peter Belli & Baby Woodrose - Nok af dig

Intro: 
G#m - F#m - G#m - B
E---------------------------------|
B---------------------------------|
G------6-----8-----6--------------| Riff A
D--6/8---6/8---6/8---8-6-4--------|
A--------------------------6-4 <  |----Sidste tone kommer kun første gang
E---------------------------------|

G#m - F#m - G#m - B
E--------------------------------|
B--------------------------------|
G-------6------8------6----------| Riff B
D--6/8----6/8----6/8----8-6-4----|
A-----------------------------6--|
E--------------------------------|

 
Omkvæd:                          Riff B ## Guitar 2
G#m  F#m  G#m             B      G#m  F#m  G#m      B
Jeeeeeeeeeeeeeeg har fået nok af dig

                                 Riff B ## Guitar 2
G#m  F#m  G#m             B      G#m  F#m  G#m      B
Jeeeeeeeeeeeeeeg har fået nok af dig


G#m                                 C#         B
Den første gang jeg så dig havde du ikke nogen sko
G#m                    C#            B
Siden har du ryddet en forside eller to
G#m                        C#        B
Du er så fucking ambitiøs, iskold og rå
G#m                              C#        B
Du vil aldrig si' dit navn i den lille blå bog


Omkvæd:                          Riff B ## Guitar 2
G#m  F#m  G#m             B      G#m  F#m  G#m      B
Jeeeeeeeeeeeeeeg har fået nok af dig

                                 Riff B ## Guitar 2
G#m  F#m  G#m             B      G#m  F#m  G#m      B
Jeeeeeeeeeeeeeeg har fået nok af dig



G#m                             C#         B
Hvis du vil skabe dig et navn i musikindustrien 
G#m		               C#        B
Må du gøre hvad de siger, kaste perler for svin
G#m		               C#     B
Når du så har fået de 5 minutter der er dine
G#m		                   C#       B
Bliver du stjerne for en aften eller helt til grin

[ Tab from: http://www.guitartabs.cc/tabs/p/peter_belli/nok_af_dig_tab.html ]
Omkvæd:                          Riff B ## Guitar 2
G#m  F#m  G#m             B      G#m  F#m  G#m      B
Jeeeeeeeeeeeeeeg har fået nok af dig

                                 Riff B ## Guitar 2
G#m  F#m  G#m             B      G#m  F#m  G#m      B
Jeeeeeeeeeeeeeeg har fået nok af dig


Mellemspil: (Det bliver spillet på bass, men det lyder også fedt på guitar)

Riff C
G#5F#5G#5F#5  | 6x
E---------------------------|
B---------------------------|
G---------------------------|
D------------------4-6-4----| 6x
A—6---6--6---6--------------|
E---------------------------|

Riff D
E---------------------------|
B---------------------------|
G------8---6----------------|
D---------------8-----------| 2x
A---6-----------------------|
E---------------------------|



G#m - F#m - G#m - B        
Riff A
G#m - F#m - G#m - B        
Riff B


Omkvæd:                          Riff B ## Guitar 2
G#m  F#m  G#m             B      G#m  F#m  G#m      B
Jeeeeeeeeeeeeeeg har fået nok af dig


                                 Riff B ## Guitar 2
G#m  F#m  G#m             B      G#m  F#m  G#m      B
Jeeeeeeeeeeeeeeg har fået nok af dig


Riff C		10x
G#5F#5G#5F#5 9x     Kommer ind sammen med sang
Fået nok af dig	9x       Sang kommer ind i slutningen af 2. omgang af riff C

Når sangen begynder begynder riff E også.
Riff E
e------------------------------------------------------
B---16—16—16—16—16—16->>>-----------------------------
G------------------------------------------------------
D------------------------------------------------------
A------------------------------------------------------
E------------------------------------------------------

Riff F
e------------------------------------------------------
B---14b16----------------------------------------------
G------------------------------------------------------
D------------------------------------------------------
A------------------------------------------------------
E------------------------------------------------------
Til sidst kommer der et lille riff der kun består af et langsomt bend.

På jaaa slutter akkorderne af på en G#m og guitar 1 og 2 slutter på den første tone.

Enjoy!
Nimzi =):-D
Comments