Peter Andre - Mysterious Girl Chords & Tabs

 

Mysterious Girl Chords & Tabs

Peter Andre Chords & Tabs

Version: 1 Type: Tab 0 ratings
1 star 2 stars 3 stars 4 stars 5 stars
comments

Mysterious Girl Tab

Song : Mysterious Girl
Artist : Peter Andre
Tabbed By : Diamond Jerry (Raptureboy182@yahoo.com)

Standard Tuning
-----------------------------------------------------------------------------

[Verse/Chorus]
[ Tab from: http://www.guitartabs.cc/tabs/p/peter_andre/mysterious_girl_tab.html ]
 {Guitar1) 
e|----------------------------------------------------------------------|
B|---8-x-8-x----4-x-4-x----4-x-4-x----6-x-6-x---------------------------|
G|---8-x-8-x----5-x-5-x----5-x-5-x----7-x-7-x---------------------------|
D|---8-x-8-x----5-x-5-x----6-x-6-x----8-x-8-x---------------------------|
A|----------------------------------------------------------------------|
E|----------------------------------------------------------------------|

 (Guitar2)
e|---6-x-6-x----3-x-3-x-------------------------------------------------|
B|---8-x-8-x----4-x-4-x----4-x-4-x----6-x-6-x---------------------------|
G|---8-x-8-x----5-x-5-x----5-x-5-x----7-x-7-x---------------------------|
D|---8-x-8-x----5-x-5-x----6-x-6-x----8-x-8-x---------------------------|
A|-------------------------6-x-6-x----8-x-8-x---------------------------|
E|----------------------------------------------------------------------|



That's it!!! Repeat the chord till end....
------------------------------------------------------------------------------
Any comments or corrections,just mail me to Raptureboy182@yahoo.com/ICQ #115343571
Comments