Peter And The Test Tube Babies - Up Yer Bum Chords & Tabs

 

Up Yer Bum Chords & Tabs

Peter And The Test Tube Babies Chords & Tabs

Version: 1 Type: Bass Tab 0 ratings
1 star 2 stars 3 stars 4 stars 5 stars
comments

Up Yer Bum Bass Tab

Artist: Peter and the test tube babies 
Song: Up Yer Bum 
tabbed by: fraggin@mypad.com

Intro:

G:------|-------|-------|
D:------|-------|-------|
A:--5-3-|-0-5-3-|---5-3-|
E:------|-------|-3-----|

Verse:

G:-------------|------------|
D:-------------|------------|
A:---0-0-0-5-3-|--------5-3-|
E:-------------|-3-3-3------|

Chorus:
[ Tab from: http://www.guitartabs.cc/tabs/p/peter_and_the_test_tube_babies/up_yer_bum_btab.html ]
G:------------------|--------------|-------------|-------------|
D:------------------|--------------|-------------|-------------|
A:------------------|-7-5-7--7-5-7-|-------------|-------------|
E:----1-1-1-1-1-1-1-|--------------|-1-1-1-1-1-1-|-3-3-3-3-3-3-|

G:-------------------|----|
D:-------------------|----|
A:---7-5-7--5-7-5----|-7--|
E:-------------------|----|

Solo:

G:-------|-------|-----------0--------|------------------------|
D:----5-3|---7-5-|------0-2----2-0----|------------------------|
A:--3----|-5-----|--0-0-------------3-|--------7-5-------7-5---|
E:-------|-------|--------------------|-7-7-7-------5-5--------|

Comments