Peter And Gordon - Willow Garden Chords & Tabs

 

Willow Garden Chords & Tabs

Peter And Gordon Chords & Tabs

Version: 1 Type: Tab

Willow Garden Tab

   
Intro:
D A D A
E-12-10-9-------------|
B---------12-10-9-10--|
G---------------------|x 2
D---------------------|
A---------------------|
E---------------------|

E   D                   Bm
Was in the willow garden
Bm D                     Bm
where i and my lover did stray
Bm D
was there we sat a courtin',
E
my lover did these words say:
[ Tab from: http://www.guitartabs.cc/tabs/p/peter_and_gordon/willow_garden_tab.html ]
Bm
Oh, Willie my darlin' oh willie my love,
D
How can you take my life?
D                    E    Bm
How can you start my fair young rest
D                       E
with your long dagger n' knife

Solo:
E-------------------------------------------------|
B-------------------------------------------------|
G-0-2--2-4--4-6--6-4--2-4--4-6--4-2---------------|
D-------------------------------------------------|
A-------------------------------------------------|
E-------------------------------------------------|

E--------------------------------------------------|
B--------------------------------------------------|
G-0-2--2-4--4-5-6--6-4--4-2--2-2h4-4-2-0-----------|
D--------------------------------------------------|
A--------------------------------------------------|
E--------------------------------------------------|

another ace tab from santy