Pete Murray - So Beautiful Chords & Tabs

 

So Beautiful Chords & Tabs

Pete Murray Chords & Tabs

Version: 1 Type: Tab 0 ratings
1 star 2 stars 3 stars 4 stars 5 stars
comments

So Beautiful Tab

Pete Murray - So Beautiful
Tabbed By: C. Nguyen
Credits to: Pete Murray and steggz for the correction
Capo on 3rd fret.

Intro and Verse        
e|-------------0-------------0-------------------------|
B|----0--------3-------------3--------0----------0-----|
G|----0--------0-------------0--------2----------0-----|
D|----2--------2-------------2--------2----------2-----| 
A|----2--------0-------2-3---3------0-0----------2-----|
E|----0--------0----------------------------3--2-0-----|
[ Tab from: http://www.guitartabs.cc/tabs/p/pete_murray/so_beautiful_tab.html ]
Pre Chorus
e|--------------------------|
B|--0--------0h1--1---------|
G|--0--------2----2---------|
D|--2--------2----2---------|
A|--2--------0----0---------|
E|--0-----------------------|

Chorus					       
e|-------------0----0-----0---0---2-----------------------|
B|----0--------0h1--1-----0h1-0---3------1-----3----------|
G|----0--------2----2-----2---2---2------0-----0----------|
D|----2--------2----2-----2---2---0------2-----4----------|
A|----2--------0----0-----0---0---0------3-----5----------|
E|----0--------0----0-----0---0---------------------------|
Comments