Pete Murray - Guilt Chords & Tabs

 

Guilt Chords & Tabs

Pete Murray Chords & Tabs

Version: 1 Type: Tab 0 ratings
1 star 2 stars 3 stars 4 stars 5 stars
comments

Guilt Tab

                     RIFF 1
intro:
 e|------------------------------------------------------------------------|
 b|-------1------4---1---1----3-333333p1-------3-33p1p0---------h1------3-3|
 g|-----2------0---0---2----0-------------------2------------0h2------2----|
 d|---2-----2---2----2----2-------------------2--------------0h2----2------|
 a|-0---------------0---3-----------------------------------------0--------|
 e|-------1----1----------------------0h2h3---------------------------=----|

 e|--------------------------3----------*2--*--0*--------------------------|
 b|--0h1-1------1----------------------3-x5--2-----------------------------|
 g|--2----2-x6-----x7----------------*2--*---3*----------------------------|
 d|--2----2-----2-------------x7-------------------------------------------|
 a|--------------2---------2-----------------------------------------------|
 e|------------------------3-----------------------------------------------|


                       2ND TIME       |---2h3p2h3/12-------------------------|
                     *      *      *  |---3p0--------------------------------|
                                      |---2----------------------------------|
                      *     *  *      |--------------------------------------|
                                      |--------------------------------------|
                                            |--------------------------------|
strumming part
[ Tab from: http://www.guitartabs.cc/tabs/p/pete_murray/guilt_tab.html ]
 e|------------------------3-----0-----------------------------------|
 b|--1--------- 0h1--------1-----1-----------------------------------|
 g|--0---------------------2-----2-----------------------------------|
 d|--2x7---2x4-----------2-----2-----------------------------------|
 a|--3---------3-----------------------------------------------------|
 e|------------0-----------------------------------------------------|

e|----------------------------3---------2-----------------------------|
 b|---1------1--------------------------3-----------------------------|
 g|---2------0--------------------------2---------------6/12----------|
 d|---2------2-------------------------------------0------------------|
 a|-----0----2-----2-----2----2-----------------0---------------------|
 e|---0--0-------0--0--3---3--3--------------0------------------------|

bridge
e|-----------------------------------------------------------------------|
 b|-----12-12-12-11-11-11-12-12-12-14-14-14-14-----x2--------------------|
 g|----------------------------------------------------------------------|
 d|----------------------------------------------------------------------|
 a|----------------------------------------------------------------------|
 e|----------------------------------------------------------------------|




SOLO:
e|---------------------------------------------------------------------------|
 b|--10-8p7-8~~~-------------------------------------------------------------|
 g|-----------------------9--7-----------------------------------------------|
 d|--------------------7h9--9--7---------------------------------------------|
 a|------------------7h9------9-7-6-7-7-9------------------------------------|
 e|--------------------------------------------9-7-6-7h9---------------------|


outro:
e|---------------------2-----0-----0---------------------------------------|
b|---1--1--1------------3-----3----2---------------------------------------|
g|--2--0--0--------------4-----4---3---------------------------------------|
d|-2--2-2-2----x3----------------------------------------------------------|
a|0--3---------------------------------------------------------------------|
e|-----3-3-----------2------0----------------------------------------------|
Comments