Pete Murray - Fly With You Chords & Tabs

 

Fly With You Chords & Tabs

Pete Murray Chords & Tabs

Version: 1 Type: Chords 0 ratings
1 star 2 stars 3 stars 4 stars 5 stars
comments

Fly With You Chords

----------------------------------------------------------------------------
			Fly With You - Pete Murray
----------------------------------------------------------------------------
This is my first tab, no doubt its not 100% but it sounds close to what is by far the 
song on Pete's new album See The Sun.
Tabbed by: Tunez
Email:

Tuning: Standard (EADGBe)

Intro/Verse

          C#       E5       B        F#5          (4 strums on each chord)

e|--------4--------x--------7--------x--------------------------------------|
B|--------5--------x--------7--------x--------------------------------------|
G|--------6--------9--------8--------11-------------------------------------|
D|--------6--------9--------9--------11-------------------------------------|
A|--------4--------7--------9--------9--------------------------------------|
E|--------x--------x--------7--------x--------------------------------------|

Chorus (guitar 1)

          C#       E5       A        F#5           (8 strums on each chord)
[ Tab from: http://www.guitartabs.cc/tabs/p/pete_murray/fly_with_you_crd.html ]
e|--------4--------x--------5--------x--------------------------------------|
B|--------5--------x--------5--------x--------------------------------------|
G|--------6--------9--------6--------11-------------------------------------|
D|--------6--------9--------7--------11-------------------------------------|
A|--------4--------7--------7--------9--------------------------------------|
E|--------x--------x--------5--------x--------------------------------------|

Chorus (guitar 2)

e|--------------------------------------------------------------------------|
B|--------------------------------------------------------------------------|
G|--6-6-6-6-6-6-6-6-8-8-8-8-8-8-8-8-9-9-9-9-9-9-9-9-11-11-11-11-11-11-11-11-|
D|--------------------------------------------------------------------------|
A|--------------------------------------------------------------------------|
E|--------------------------------------------------------------------------|


Just an idea. Heaps more to the song, like the interlude etc. You'll have to figure it 
Go The F#%*$@! Aussies!
Cheers.

===============================================================================
Comments