Pete Murray - Class A Chords & Tabs

 

Class A Chords & Tabs

Pete Murray Chords & Tabs

Version: 1 Type: Bass Tab

Class A Bass Tab

this is a really easy song it just plays these 2 riffs.
i am 95% sure of this tab

Riff 1
when drums come in
g -------------------|
d -----------------3-|
a 5-5---3--3-----5---|
e ----3------3-3-----|
[ Tab from: http://www.guitartabs.cc/tabs/p/pete_murray/class_a_btab.html ]
Riff 2
g -----------|
d -----------|
a 5-5---3--3-|
e ----3------|

Order:Riff 1 x6
     :Riff 2 x8
     :Riff 1 x4
     :Riff 2 x8
     :Riff 1 x8
     :Riff 2 x10
     :Riff 1 x10

there it is have fun playing it any comments send to rugbystar69@msn.com thanks.