Pete Murray - Bail Me Out Chords & Tabs

 

Bail Me Out Chords & Tabs

Pete Murray Chords & Tabs

Version: 2 Type: Tab 0 ratings
1 star 2 stars 3 stars 4 stars 5 stars
comments

Bail Me Out Tab

Key: b=bend|h=hammer on|p=pluck off|s=slide
I think this is right....if something doesnt sound right....e-mail 
if you know anymore pete murray that is not on here!!............ENJOY!!


E |--------------------------------------------------------------|
B |-----7b---------7---9--9b--------7b---------7----9--9b--------|
G |-----7b---------7---9--9b--------7b---------7----9--9b--------|
D |-7h9----9---7h9---9----------7h9----9---7h9----9--------------|
A |--------------------------------------------------------------|
E |--------------------------------------------------------------|
[ Tab from: http://www.guitartabs.cc/tabs/p/pete_murray/bail_me_out_tab_ver_2.html ]
E |--------------------------------------------------------------|
B |------10----10h12--12-12p10----10-9---------------------------|
G |-9s11----11-----------------11-------7h9p7-6h7p6-------7------|
D |-------------------------------------------------7-7h9---9----|
A |--------------------------------------------------------------|
E |--------------------------------------------------------------|

E |--------------------------------------------------------------|
B |--------------------10----------------------------------------|
G |---------------9s11----11p9----9------------------------------|
D |-----7---7h9----------------12--------------------------------|
A |-7h9---9------------------------------------------------------|
E |--------------------------------------------------------------|
Comments