Pete Murray - Bail Me Out Chords & Tabs

 

Bail Me Out Chords & Tabs

Pete Murray Chords & Tabs

Version: 1 Type: Tab 0 ratings
1 star 2 stars 3 stars 4 stars 5 stars
comments

Bail Me Out Tab

Pete Murray: Bail Me Out

Capo 2nd Fret (despite my guitars tuning it does sound spot on!)
>Denotes slide
x denotes muted strum

Verse

----------------------------------------------------------------
----------------------------------------------------------------
----------------------------------------------------------------       Repeat x ?!
-----------------------------------5--5--x--7--x--7--7
--5-->--7--7--x--5--x--7--7--x--x--3--3--x--5--x--5--5
--3-->--5--5--x--3--x--5--7--x--x-------------------------

     Two weeks            a   w   a  y              etc


Opening riff

(3rd string)----14-----------------------------------------------------14----------------------
(4th string)------------14------12-------11-------12--------14--------------14-----------12
[ Tab from: http://www.guitartabs.cc/tabs/p/pete_murray/bail_me_out_tab.html ]
Lead Into Chorus


--------------------------
--------------------------
--------------------------
--5--5--x--7--x--7---7           Repeat x 2
--3--3--x--5--x--5---5
--------------------------

Going to die…….


Chorus

---------------------------------------
---------------------------------------
--------------------------------------- 
 ----------5--5--x--7--7--x--5--5           Repeat x ?
--7--7--x--3--3--x--5--5--x--3--3
--5--5--x-----------------------------

  Oh            here we     go       again    etc


The song is straight forward, have a listen to fine tune the strum-
also you can replace the power chord with a full bar chord to
get a more realistic sound.

Patrick Smith

thankyou to all the contributors and keep up the good work.

Oh yeah and soz if the formatting is fuct!!
Comments