Pete - Bury Me Chords & Tabs

 

Bury Me Chords & Tabs

Pete Chords & Tabs

Version: 1 Type: Tab 0 ratings
1 star 2 stars 3 stars 4 stars 5 stars
comments

Bury Me Tab

CD: Pete.
Band: Pete.
Song: Bury Me
Tuning : Standard
Tabbed by: Wallace (MsMoppett@aol.com)


Part 1 - Intro and Verse

e------0-----------------3-----0-------------->  Repeat throughout verse
B----0-------3---------3---------------------->
G----------0---0-----0-------2---2------------>
D--2-----------------------0-------0---------->
A--------3-------3---------------------------->
E--------------------------------------------->

[ Tab from: http://www.guitartabs.cc/tabs/p/pete/bury_me_tab.html ]
Part 2 - Chorus
			    "...tonight.." (Solo 1 in background)
e---------------\--------------------------------------------->
B----------------\-------------------------------------------->
G-----------------\------------------------------------------->
D--10~----5--7---Repeat 3x---9--7----2---3-------------------->
A--10~----5--7---/-----------9--7----2---3-------------------->
E--8~-----3--5--/------------7--5----0---1-------------------->


Repeat Part 1 in Distortion----

Repeat Part 2 in Distortion----

"Down.. Down.."
Repeat ending of Part 2 after repeats

Repeat Verse--"loosen the robe now, dont let it go..."

Repeat Chorus


---solos---


Solo 1
e------------------------------------------------------------>
B------------------------------------------------------------>
G------------------------------------------------------------>
D------------------------------------------------------------>
A--9-9h10p9-7--5--7-0-14--14-12-8--9--Repeat as needed------->
E------------------------------------------------------------>
Comments