Pestilence - Stigmatized Chords & Tabs

 

Stigmatized Chords & Tabs

Pestilence Chords & Tabs

Version: 1 Type: Tab 0 ratings
1 star 2 stars 3 stars 4 stars 5 stars
comments

Stigmatized Tab

   
                         PESTILENCE - STIGMATIZED
                         From the Album TESTIMONY OF THE ANCIENTS
                         Copyright 1991 The All Blacks B.V./    
                                        Roadrunner Records 

                              Version 1.1 - December 96
                                 
Transcription Done By: Richard Broadhead II() 
For Questions, Comments, Corrections, or Newest Version; 
               please contact Rich Broadhead at 

Check Out My Web Page, With More Transcriptions On It:
               

.  - palm mute                          ph    - pinched harmonic
/  - slide up to                        ah    - artificial harmonic
\  - slide down to                      th    - tap harmonic 
~  - vibrato                            hr    - natural harmonic
h  - hammer on                          b     - bend 
p  - pull off                              Suffixes for bend    
t  - tap with finger                            f - full bend    h - half bend
repeat measure                             r - release      t - tap bend
X  - percussion mute                            p - pick when bent 
>  - accented note                         Prefixes
() - ghost note, sustained note                 p - pre-bend     w - use bar
*  - see comment                                d - don't pick start of bend 

Normal Tuning

          INTRO                (end of INTRO)
          repeat 4 times    repeat 4 times
|-------||---------------||---------------||
|-------||---------------||---------------||
|-------||*-------------*||*-------------*|| GTR I 
|-5\4/5-||*-3-5-4-5\4/5-*||*-6-8-7-8\7/8-*||
|-------||---------------||--6-8-7--------||
|-3\2/3-||--1-3-2-3\2/3--||--4-6-5-6\5/6--||
|                                       
|-------||---------------||---------------||
|-------||---------------||---------------||
|-------||*-------------*||*-------------*|| GTR II
|-5\4/5-||*-3-5-4-5\4/5-*||*-3-5-4-5\4/5-*||
|-------||--3-5-4--------||--3-5-4--------||
|-3\2/3-||--1-3-2-3\2/3--||--1-3-2-3\2/3--||

Riff A                                 
                                       hold(keyboard)
|------------------------------------|0-------------------------------------|
|hold(guitar I)----------------------|17------------------------------------|
|4-----------------------------------|--------------------------------------|
|2-----------------------------------|--------------------------------------|
|2-----------------------------------|--------------------------------------|
|0-----------------------------------|--------------------------------------|
|
|guitar II                              
|0-7-12-0-8-12-0-7-12-0-8-15-0-8-14-8|0-7-12-0-8-12-0-7-12-0-8-15-0-10-17-10|
|------------------------------------|--------------------------------------|
|------------------------------------|--------------------------------------|
|------------------------------------|--------------------------------------|
|------------------------------------|--------------------------------------|
|------------------------------------|--------------------------------------|

continuation of Riff A                                  (end of Riff A)
 guitar I
|0-7-12-0-8-12-0-7-12-0-8-15-0-8-14-8|0-7-12-0-8-12-0-7-12-0-8-15-0-10-17-10|
|------------------------------------|--------------------------------------|
|------------------------------------|--------------------------------------|
|------------------------------------|--------------------------------------|
|------------------------------------|--------------------------------------|
|------------------------------------|--------------------------------------|
|
|                                     hold(keyboard)
|------------------------------------|0-------------------------------------|
|hold(guitar II)---------------------|17------------------------------------|
|4-----------------------------------|--------------------------------------|
|2-----------------------------------|--------------------------------------|
|2-----------------------------------|--------------------------------------|
|0-----------------------------------|--------------------------------------|
                                                                     8 times
|--------------------------------|---------------------------------|--------|
|--------------------------------|---------------------------------|--------|
|-----------------------4320-----|---------------------------------|*----3~*|
|-2---------------------543254---|---------------------------------|*5543--*|
|-2-------------------------542--|---------------------------------|--------|
|-0-------------------------320--|---------------------------------|--------|
|                           ...
|                                                                    8 times
|--------------------------------|---------------------------------|--------|
|--------------------------------|---------------------------------|--------|
|-----3~------3~------3~-----3~--|-----3~------3~------3~------3~--|*----3~*|
|5543----5543----5543---5543-----|5543----5543----5543----5543-----|*5543--*|
|--------------------------------|---------------------------------|--------|
|--------------------------------|---------------------------------|--------|

Riff B
|---------------------------------------------------------------------|
|---------------------3~---------------------2~--------------------3~-|
|-------------------34---------------------34--------------------34---| GTR I
|---------------------------------------------------------------------|
|-2-----2-----2----------2-----2-----2---------2-----2-----2----------|
|-000000000000000000-----000000000000000000----000000000000000000-----|
| ..................     ..................    ..................
|
|---------------------------------------------------------------------|
|---------------------------------------------------------------------|
|---------------------4~---------------------3~--------------------4~-| GTR II
|-------------------45---------------------45--------------------45---|
|-2-----2-----2----------2-----2-----2---------2-----2-----2----------|
|-000000000000000000-----000000000000000000----000000000000000000-----|
  ..................     ..................    ..................

continuation of Riff B(end of Riff B)
|----------------------------|
|----------------------232---|
|-------------------434---43-| GTR I
|----------------------------|
|-2-----2-----2--------------|
|-000000000000000000---------|
| ..................
|
|----------------------------|
|----------------------------|
|----------------------343---| GTR II
|-------------------545---54-|
|-2-----2-----2--------------|
|-000000000000000000---------|
  ..................

Play Riff B a total of two times

Riff C                                                (end of Riff C)  
|-----------------------------------------------------------------------|
|----------------------------------------------------------------676----|
|-4-3~--------------------------------4-3~--------------------767---76--|GTR I
|-------------------5-4~--------------------------------5-4~------------|
|-----------------------------------------------------------------------|
|------0-00000-0000------0-00000-0000------0-00000-0000-----------------|
|      . ..... ....      . ..... ....      . ..... ....
|
|-----------------------------------------------------------------------|
|-------------------5-3---------------------------------5-3-------------|
|-4-3---------------------------------4-3------------------------343----|GTR 2
|-5-4---------------5-4---------------5-4---------------5-4---545---54--|
|-----------------------------------------------------------------------|
|-----------------------------------------------------------------------|
[ Tab from: http://www.guitartabs.cc/tabs/p/pestilence/stigmatized_tab.html ]
Play Riff C a total of two times
Play Riff B twice, then Riff C twice
  
   hold                       hold                      
|-0(keyboard)--------------|-2(keyboard)--------------|
|--------------------------|--------------------------|
|--------------------------|-4(keyboard)--------------|
|--------------------------|--------------------------|
|-2-2----------------------|-2-2----------------------|
|-0-0----------------------|-0-0----------------------|
|                            
|--------------------------|--------------------------|
|--------------------------|--------------------------|
|--------------------------|--------------------------|
|----12----11----12----11~-|----12----11----12----11~-|
|9-10--9-10--9-10--9-10----|9-10--9-10--9-10--9-10----|
|--------------------------|--------------------------|

|-3(keyboard)-------------|-(3)----------------------|
|-5(keyboard)-------------|-(5)----------------------|
|-------------------------|---hold-------------------|
|-------------------------|---2----------------------| GTR I
|-2-2---------------------|-2-2----------------------|
|-0-0---------------------|-0-0----------------------|
|     
|                           retardo
|-------------------------|--------------------------|
|-------------------------|--------------------------|
|-------------------------|--------------------------| GTR II
|----12----11----12---11~-|----12----11----12----11~-|
|9-10--9-10--9-10--9-8----|9-10--9-10--9-10--9-10----|
|-------------------------|--------------------------|

 guitar solo (guitar I)
|---------------------------------------|-----------------------------------
|---------------------------------------|-12~--13-12---------------12-13----
|-12~---11~---12~---14bfr-11~--12-11----|-----------14-12-11-12-14----------
|------------------------------------14-|-----------------------------------
|---------------------------------------|-----------------------------------
|---------------------------------------|-----------------------------------
|
|  guitar 2                             
|-------3-----------------3-------------|-3---------------------------------
|-3-----3-----3-----------3-------------|-5---------5-----------------------
|-5-----5-----5-----------5-------------|-4---------4-----------------------
|-5---X-5---XX5---------X-5-------------|-2-------X-2-----------------------
|-3---X-7---XX3---------X-7-------------|-2-------X-2-----------------------
|-3---X-----XX3---------X---------------|-0-------X-------------------------

continuation of above measure(guitar 1)
----------------------------------|-14bh-14bhp~-12bf-12bfp~-14bh-14bhp~--
--12bh----------------------------|--------------------------------------
-------14-14bf-12-12bh-11-11bh----|--------------------------------------
-------------------------------14-|--------------------------------------
----------------------------------|--------------------------------------
----------------------------------|--------------------------------------
|                              .
| guitar 2
--3-------------------------------|-------------3------------------------
--5----------------5--------------|-3-----------3-----------3------------
--4----------------4--------------|-5-----------5-----------5------------
--2--------------X-2--------------|-5---------X-5---------X-5------------
--2--------------X-2--------------|-3---------X-7---------X-3------------
--0--------------X----------------|-3---------X-----------X-3------------

continuation of above measure(guitar 1)
--12bf-12bfp~-14-|-17/19~------15-17-19-17-15----------------------------
-----------------|--------15-17--------------19-17-15-14-15-17-15-14-12--
-----------------|-------------------------------------------------------
-----------------|-------------------------------------------------------
-----------------|-------------------------------------------------------
-----------------|-------------------------------------------------------
|                 
| guitar 2                                              
---3-------------|-3------------------------------3----------------------
---3-------------|-5----------5-------------------5----------------------
---5-------------|-4----------4-------------------4----------------------
-X-5-------------|-2--------X-2-------------------2----------------------
-X-7-------------|-2--------X-2-------------------2----------------------
-X---------------|-0--------X---------------------0----------------------

continuation of above measure
---------------------|
---------------------|
--14-12-11-12--------| GTR I
--------------14-12--|
---------------------|
---------------------|
|                 .
|
---------------------|
--5------------------|
--4------------------| GTR II
X-2------------------|
X-2------------------|
X--------------------|

Riff D(The catchest riff in the world!!!)
|--------------------|----------------------------|----|
|--------------------|----------------------------|----|
|------11-12-11~-----|-------11-12-11h12p11----11-|-%-| GTR I
|-10-12-----------12-|-10-12----------------12----|-%-|
|--------------------|----------------------------|----|
|--------------------|----------------------------|----|
|
|--------------------|----------------------------|----|
|--------------------|----------------------------|----|
|-hold---------------|-hold-----------------------|-%-| GTR II
|-5------------------|-5--------------------------|-%-|
|-3------------------|-3--------------------2--6--|----|
|--------------------|----------------------------|----|
                                                         
continuation of Riff D
|--------------------|----------------------------|--------------------|
|--------------------|----------------------------|--------------------|
|-------14-15-14~----|-------14-15-14h15p14----14-|-------14-15-14~----| GTR I
|-13-15-----------15-|-13-15----------------15----|-13-15-----------15-|
|--------------------|----------------------------|--------------------|
|--------------------|----------------------------|--------------------|
|
|--------------------|----------------------------|--------------------|
|--------------------|----------------------------|--------------------|
|--hold--------------|--hold----------------------|--hold--------------| GTR 2
|-8------------------|-8--------------------------|-8------------------|
|-6------------------|-6--------------------5--10-|-6------------------|
|--------------------|----------------------------|--------------------|

continuation of Riff D(end of Riff D)
|-------------13-17-13-|
|----------------------|
|-------14-15----------| GTR I
|-13-17----------------|
|----------------------|
|----------------------|
|
|----------------------|
|----------------------|
|----------------------| GTR II
|-8--------------------|
|-6--------------------|
|----------------------|

Play Riff D a total of two times

|-------|
|-------| guitars 1 and 2 play this riff 8 times
|----3~-|
|5543---|
|-------|
|-------|

Play Riff B twice
Play Riff C twice

|------------------|
|----676-----676---|
|-767---76767---76-| GTR I
|------------------|
|------------------|
|------------------|
|
|------------------|
|------------------|
|----343-----343---| GTR II
|-545---54545---54-|
|------------------|
|------------------|

guitars 1 and 2 play this twice
|------------------------------------------------|
|------------------------------------------------|
|---------------------------------10----------10-|
|---------------------------------5-----------5--|
|-----------7----------7----------8-----------8--|
|-0000000000-0000000000-0000000000--0000000000---|
  .......... .......... ..........  ..........

Play Riff D twice(but on the last time, guitar three plays this harmony)
|-------------17-20-17~--------------------------|
|------------------------------------------------|
|-------19-20------------------------------------| GTR III
|-17-20------------------------------------------|
|------------------------------------------------|
|------------------------------------------------|

Play INTRO with guitar solo whammy effects
Play Riff A

repeat and fade(guitar 1)
|0-7-12-0-8-12-0-7-12-0-8-15-0-8-14-8|0-7-12-0-8-12-0-7-12-0-8-15-0-10-17-10|
|------------------------------------|--------------------------------------|
|------------------------------------|--------------------------------------|
|------------------------------------|--------------------------------------|
|------------------------------------|--------------------------------------|
|------------------------------------|--------------------------------------|
|
|repeat and fade(guitar 2 with flanger)
|------------------------------------|--------------------------------------|
|------------------------------------|--------------------------------------|
|------------------------------------|--------------------------------------|
|----2------2------2------5------4---|----2------2------2------5-------7----|
|--2------3------2------3------3---3-|--2------3------2------3------5-----5-|
|0------0------0------0------0-------|0------0------0------0------0---------|

For Questions, Comments, Corrections, or Newest Version; 
               please contact Rich Broadhead at 

Check Out My Web Page, With More Transcriptions On It:
               
Comments