Pesticide - Hows It Feel Chords & Tabs

 

Hows It Feel Chords & Tabs

Pesticide Chords & Tabs

Version: 1 Type: Tab 0 ratings
1 star 2 stars 3 stars 4 stars 5 stars
comments

Hows It Feel Tab

song- hows it feel
album- broke
writen by- eric colman



intro

|----------------------------------------------------------------|
|---11---11----11---11------11-11-----11-11-------11-11----11-11-|
|---11---11----11---11------11-11-----11-11-------11-11----11-11-|
|-9----8----------------9-9-------8-8----------------------------|
|-----------11----9-------------------------11-11-------9-9------|
|----------------------------------------------------------------|


verse:
a lifeless girl
has fallen from the ski
the braking tear drops
from their eyes
when they're resonsible 
they turn to cry

chours:
hows it feel
now that you end their world
hows it feel
the sufering of anouther 
[ Tab from: http://www.guitartabs.cc/tabs/p/pesticide/hows_it_feel_tab.html ]
verse:
nows your chance to run away 
nows your chance to face their pian 
now that a world has ended
the red alert is sounding

chours:
hows it feel 
now that you've ended thier world
its no suprise 
ive begged for murder


|----------------------------------------------------------------|
|----------------------------------------------------------------|
|----------------------------------------------------------------|
|-7-7--7-7--7-7--7-7--7-7--5-5--7-7--7-7--7-7--7-7--7-7--5-5-----|
|-7-7--7-7--7-7--7-7--7-7--5-5--7-7--7-7--7-7--7-7--7-7--5-5-----|
|-5-5--5-5--5-5--5-5--5-5--3-3--5-5--5-5--5-5--5-5--5-5--3-3-----|


if u hve any questions about my song my e mail is 
guitarpleg86@hotmail.com 
Comments