Pessimist - Nucluar Winter Chords & Tabs

 

Nucluar Winter Chords & Tabs

Pessimist Chords & Tabs

Version: 1 Type: Tab 0 ratings
1 star 2 stars 3 stars 4 stars 5 stars
comments

Nucluar Winter Tab

   
pessimist--nucular winter

cole dowell-guitar
cory chapple-bass
tyler evens-guitar
sunny franco-drums

tunning drop d


heavy

part a
-------------------------------------------------------------
-------------------------------------------------------------
-------------------------------------------------------------
-------------------------------------------------------------
----------5-0-3-0-5-4-----------------5-0-3-0-5-2------------
--0-0-5-7----------------------0-0-5-7-----------------------

part b
-------------------------------------------------------------
-------------------------------------------------------------
-------------------------------------------------------------
-----------5-0-3-0-5-4----------------5-0-3-0-5-2------------
--0-0-5-7--5-0-3-0-5-4--------0-0-5-7-5-0-3-0-5-2------------
--0-0-5-7---------------------0-0-5-7------------------------
[ Tab from: http://www.guitartabs.cc/tabs/p/pessimist/nucluar_winter_tab.html ]
part c
-------------------------------------------------------------
-------------------------------------------------------------
-------------------------------------------------------------
------------------------------3-5-3-3-3-3-3-3-3-3-3-3-3-3-5-3
--0-0-0-0-0-0-0-0-0-0-0-0-3-5-3-5-3-3-3-3-3-3-3-3-3-3-3-3-5-3-5-3
--0-0-0-0-0-0-0-0-0-0-0-0-3-5---------------------------------5-3
  . . . . . . . . . . . . . . . . . . . . . . . . . . . . . . . .

part d
-------------------------------------------------------------
-------------------------------------------------------------
-------------------------------------------------------------
-------------------------------------------------------------
-3-3-3-3-3-3-3-3-1-1-1-1-1-1-1-1-5-5-5-5-5-5-5-5-3-3-3-3-3-3-3-3
-3-3-3-3-3-3-3-3-1-1-1-1-1-1-1-1-5-5-5-5-5-5-5-5-3-3-3-3-3-3-3-3

outro
-------------------------------------------------------------
-------------------------------------------------------------
-------------------------------------------------------------
-------------------------------------------------------------
-3----------------1---------------5--------------3-----------
-3----------------1---------------5--------------3-----------part a  2x
part b  2x
part c  4x
part a  2x
part b  2x
part c  4x
part d  4x
part a  2x
part b  2x
outro   4x
Comments