Persian Rugs - Be A Woman Chords & Tabs

 

Be A Woman Chords & Tabs

Persian Rugs Chords & Tabs

Version: 1 Type: Tab 0 ratings
1 star 2 stars 3 stars 4 stars 5 stars
comments

Be A Woman Tab

The persian rugs are basically the Hoodoo Gurus but with a new bassist.
They released an album in 2003 called 'Turkish Delight"
Here is link to their official site
http://www.hoodoogurus.net/persianrugs.htm

PERSIAN RUGS
BE A WOMAN
Tabbed by James Greig

MAIN RIFF

e|-----------------------|
B|-----------------------|
G|-------------5---------|
D|--7--7-7-5/7---7p5-7---|
A|--7--7-7---------------|
E|--5--5-5---------------|

e|---------------------------|
B|---------------------------|
G|-------------5-------------|
D|--7--7-7-5/7---7p5-7p5-----|
A|--7--7-7---------------7---|
E|--5--5-5-------------------|

CHORUS ("be a woman")
[ Tab from: http://www.guitartabs.cc/tabs/p/persian_rugs/be_a_woman_tab.html ]
e|--------------------|
B|--------------------|
G|------------5/7\5---|
D|--7-7-7-7-7-5/7\5---|
A|--7-7-7-7-7-3/5\3---|
E|--5-5-5-5-5---------|

POST CHORUS

e|---------------------------------------------------|
B|--4-4-4/7-7-7-7\4-4-4/7-7-7-9-9-9-9-9/11-11-11-11--|
G|--4-4-4/7-7-7-7\4-4-4/7-7-7-9-9-9-9-9/11-11-11-11--|
D|--4-4-4/7-7-7-7\4-4-4/7-7-7-9-9-9-9-9/11-11-11-11--|
A|--2-2-2/5-5-5-5\2-2-2/5-5-5-7-7-7-7-7/9--9--9--9---|
E|---------------------------------------------------|

OUTRO

e|-----------------------|
B|-----------------------|
G|-------------5---------|
D|--7--7-7-5/7---7p5-7---|
A|--7--7-7---------------|
E|--5--5-5---------------|

e|----------------|
B|----------------|
G|----------------|
D|--7--7-7-5-7:---|
A|--7--7-7-5-7:---|
E|--5--5-5-3-5:---|

Any comments, suggestions or corrections?
Does anyone know where to get lyrics for the Persian rugs?
greigfam@tac.com.au
Comments