Perry Ryan - My Life Chords & Tabs

 

My Life Chords & Tabs

Perry Ryan Chords & Tabs

Version: 1 Type: Chords 1 rating
1 star 2 stars 3 stars 4 stars 5 stars
comments

My Life Chords

   
Title : My life
Artist: Ryan Parry

 - Enjoy!
   tab by igorski

------------------

Intro/verse riff:
-----------------

     B5              C#5
 E |-----------------------------------|
 B |-----------------------------------|
 G |-----------------------------------|
 D |-----9-------9-------11-------11---|
 A |---9---9---9---9---11--11---11--11-|
 E |-7-------7-------9--------9--------|
     PM...............................

     B5              C#5      E5
 E |-----------------------------------|
 B |-----------------------------------|
 G |-----------------------------------|
 D |-----9-------9-------11-------14---|
 A |---9---9---9---9---11--11---14--14-|
 E |-7-------7-------9--------12-------|
     PM...............................

Verse 1:
--------

 My life torn to pieces by you
 You left, I clearly have no clue

 (play unmuted power chords)
 You don't, even listen to me.
 Only once, it's really to set you free.
[ Tab from: http://www.guitartabs.cc/tabs/p/perry_ryan/my_life_crd.html ]
 (play muted figure again)
 ...? Try to love through you.
 All that lying stuff, I try to love through you.
 I guess, it's time for you to go away.
 Guess not, what I want to say

 'cause!

Chorus:
-------

 B5    C#5    E5    F#5
 You   don't  love  me

 B5        C#5     E5      F#5
    That's why    you like to see


 B5  C#5        E5 F#5
 who you really a-hare

 B5         C#5         E5 F#5
 the person sitting in the dark

Verse 2:
--------

Starting over isn't the easiest thing to do.
By now, we'll make it through and through.
I see your face, I try to walk away.
Then I realise, I want you to stay!

The earth... I try to avoid it.
Then I realise: we can't all say it.

 B5 C#5
     All right!

 B5 C#5
 B5 C#5
 E5

(chorus)

Solo:
-----

I'm gonna need help here.
Comments