Perfect Circle - Orestes Chords & Tabs

 

Orestes Chords & Tabs

Perfect Circle Chords & Tabs

Version: 2 Type: Tab 0 ratings
1 star 2 stars 3 stars 4 stars 5 stars
comments

Orestes Tab

Band: Aperfectcircle
song: Orestes

c---------------------------------
g--0------0------8------8---------
e----7------7------9------9-------
b------5------5------7------7-----
f--7------7------8------8---------
c---------------------------------

c------------------------------------------------
g--0------0------0-----0------0--------0---------
e----7------7------5-----5------2----2-----------
b------5------5------7-----7------0--------------
f--7------7------5-------------------------------
c------------------------------------------------

c-----------------------------------------------
g--0------0-------------------0-----------------
e----7------7---------0-----0---0------0--------
b------5------5-----2-----2-------2------2------
f--7------7-------0-----0-----------0-----------
c-----------------------------------------------

c---------------------------------
g--0------0------8-----8----------
e----7------7------9-----9--------
b------5------5------7-----7------
f--7------7------8-----8----------
c---------------------------------
rest
c--------------------------------------------0-----------------
g-16-15-15--13-13-13-1212-12h13-12h13-12-10\\10----------------
e--------------------------------------------------------------
b--------------------------------------------------------------
f--------------------------------------------------------------
c--------------------------------------------------------------
ryhtem bridge
c---------------------------------
g--0-------0------8------8--------
e----7-------7------9------9------
b------5-------5------7------7----
f--7-------7------8------8--------
c---------------------------------

your on your own for the "one more medicated peaceful moment part"
after that
c--------0------------------------------0----------------------------0---------------------------------
g--------0------------------------------0----------------------------0---------------------------------
e--2/4-4-4-0-4\2-2-------------0--2/4-4-4-0-4\2-0--------------2/4-4-4-0-4\2-0---------------0---------
b------------------0-2/4-4-4-7--------------------0-2/4-0-4-2------------------0-2/4-4-4/7-7-----------
f------------------------------------------------------------------------------------------------------
c------------------------------------------------------------------------------------------------------
cont
c----------------------------------------------
g----------------------------------------------
e--------0--------0---------0-0--0---0---------
b--7\5-5--5-5\4-4---4-4\2-2---0h20h2-2---------
f----------------------------------------------
c----------------------------------------------

c--------------------------------
g--0------0------8------8--------
e----7------7------7------7------
b------5------5------9------9----
f--7------7------8------8--------
c--------------------------------
[ Tab from: http://www.guitartabs.cc/tabs/p/perfect_circle/orestes_tab_ver_2.html ]
c--0--0-0--0------0-0-0-0--0-----0-----0--0--0--0-0--0-----0---0---0--0-----0-----
g--15-1515-15/17-1717-1212-12h13-12h13-12-15-15-1515-15/17-17b-17b-17b17brb-17----
e---------------------------------------------------------------------------------
b---------------------------------------------------------------------------------
f---------------------------------------------------------------------------------
c---------------------------------------------------------------------------------
cont
c--0--0-0--0------0-0-0-0--0-----0-----0--0-----0--0-----------
g--15-1515-15/17-1717-1212-12h13-12h13-12-12\10-10-10----------
e--------------------------------------------------------------
b--------------------------------------------------------------
f--------------------------------------------------------------
c--------------------------------------------------------------

c--0-00-0-----0-0-00--0---0---0-00-0----0--0--0--0--0-----0-----
g--8-88-8/10-1010-55--5h6-5h6-8-88-8/10-10b10b10b10b10brb-10---
e--------------------------------------------------------------
b--------------------------------------------------------------
f--------------------------------------------------------------
c--------------------------------------------------------------

c--0-00-0----0-0--00-0---0---0-0---------------
g--8-88-8/10-1010-55-5h6-5h6-5-5-5p3-3--3--3---
e----------------------------------------------
b----------------------------------------------
f----------------------------------------------
c----------------------------------------------

c--------|------------------------------------------------------
g--------|------------------------------------------------------
e--2-5-7-|-//9--999--7-77777--5-55555-55555-5555-000------------
b--2-5-7-|-//9--999--7-77777--5-55555-55555-5555-000------------
f--0-3-5-|-//7--777--5-55555--3-33333-33333-3333-000------------
c--------|------------------------------------------------------
this is realy fiant under this riff and i think its varied a little bit from this at the end...more pull offs further down the neck
c--0--0-0--0------0-0-0-0--0-----0-----0--0--0--0-0--0-----0---0---0--0-----0-----
g--15-1515-15/17-1717-1212-12h13-12h13-12-15-15-1515-15/17-17b-17b-17b17brb-17----
e---------------------------------------------------------------------------------
b---------------------------------------------------------------------------------
f---------------------------------------------------------------------------------
c---------------------------------------------------------------------------------
cont
c--0--0-0--0------0-0-0-0--0-----0-----0--0-----0--0-----------
g--15-1515-15/17-1717-1212-12h13-12h13-12-12\10-10-10----------
e--------------------------------------------------------------
b--------------------------------------------------------------
f--------------------------------------------------------------
c--------------------------------------------------------------
this is also varied a little bit
c--------0------------------------------0----------------------------0---------------------------------
g--------0------------------------------0----------------------------0---------------------------------
e--2/4-4-4-0-4\2-2-------------0--2/4-4-4-0-4\2-0--------------2/4-4-4-0-4\2-0---------------0---------
b------------------0-2/4-4-4-7--------------------0-2/4-0-4-2------------------0-2/4-4-4/7-7-----------
f------------------------------------------------------------------------------------------------------
c------------------------------------------------------------------------------------------------------
cont
c----------------------------------------------
g----------------------------------------------
e--------0--------0---------0-0--0---0---------
b--7\5-5--5-5\4-4---4-4\2-2---0h20h2-2---------
f----------------------------------------------
c----------------------------------------------

the greatest most emotional peice in the world...trully religious














Comments