Perfect Circle - Orestes Chords & Tabs

 

Orestes Chords & Tabs

Perfect Circle Chords & Tabs

Version: 1 Type: Tab 0 ratings
1 star 2 stars 3 stars 4 stars 5 stars
comments

Orestes Tab

   
Hi! all a perfect circle fans (no fans also) there´s somethin´good 
from a.p.c. IM A COLOMBIAN FAN.
This is my first tablature in this page, because i have written
spanish tablatures of aterciopelados in a spanish (language) page.
I like a.p.c. a lot, LATER I´LL SEND 3 LIBRAS CORRECT VERSION

Tune your guitar 1/2 step down


  --------------------------1--------1------------              
  -----1----------1------------3--------3---------
  --2----------2------------------0--------0------    Repeat this once          
  -(3)-----3----------3---------------------------
  -------------------------(3)--------------------              
  ------------------------------------------------

Metaphore...

  --------------------------1--------1------------              
  -----1----------1------------3--------3---------
  --2----------2------------------0--------0------    Repeat this and do the          
  -(3)----3----------3----------------------------    next when begin: Gotta cut...
  -------------------------(3)--------------------              
  ------------------------------------------------

Gotta...

  ------------------------------------------------              
  -----1----------1-------------------------------
  --2----------2----------2--3--0----2--3--0----2-     Repeat while begin         
  --------3----------3----------------------------     And from pulling...
  ------------------------------------------------              
  ------------------------------------------------

Now repeat the first riff while Maynard sing and from pullin`...
Stop when he says scream... There goes a short solo 

  --9--8--6--5/8--9/3--3--3--3--------------------              
  ------------------------------------------------
  ------------------------------------------------              
  ------------------------------------------------
  ------------------------------------------------              
  ------------------------------------------------

Give me one more medicated...

    D  C  D  E/F    G
  ---------------------              
  ---------------------    If you preffer don´t play 
  --7--5--7--9/10--12--    C it sounds more similar, and         
  --7--5--7--9/10--12--    only in the second repetition play
  --5--3--5--7/8---10--    G.      
  --5--3--5--7/8---10--

I don´t wan´t to feel...

  ------------------------------------------------              
  -----1----------1-------------------------------
  --2----------2----------2--3--0----2--3--0----2-     Repeat once         
  --------3----------3----------------------------     
  ------------------------------------------------              
  ------------------------------------------------

Here comes the solo:

  ------------------------------------------------              
  ------------------------------------------------
  ----------7-------------------------------------              
  --5/7--7-----7--7/5--3--------------------------
  ------------------------3--5/7--8--7--10--------              
  ------------------------------------------------

  ------------------------------------------------              
  ------------------------------------------------
  -----------------7------------------------------              
  --5-5-5--5/7--7-----7--7/5--3-------------------
  -------------------------------3--5/7--8-7-5-3--              
  ------------------------------------------------

  ------------------------------------------------              
  ------------------------------------------------
  ----------7-------------------------------------              
  --5/7--7-----7--7/5--3--------------------------
  ------------------------3--5/7--8--7--10--7-----              
  ------------------------------------------------
[ Tab from: http://www.guitartabs.cc/tabs/p/perfect_circle/orestes_tab.html ]
  ------------------------------------------------              
  ------------------------------------------------
  ------------------------------------------------              
  ------------------------------------------------    
  --10-10/8-8-8-8-8/7-7-7-7-7/5-5-5-5-5/3-3-3-----              
  ------------------------------------------------

And then:

  --------------------------1--------1------------              
  -----1----------1------------3--------3---------
  --2----------2------------------0--------0------    Repeat this once          
  -(3)-----3----------3---------------------------
  -------------------------(3)--------------------              
  ------------------------------------------------

Another solo:

  ----8-8-8-8-8-8/10--10/5-5"6"5"6"5--------------
  --1/8*------------------------------------------
  ------------------------------------------------
  ------------------------------------------------
  ------------------------------------------------
  ------------------------------------------------

  ----8-8-8-8-8-8/10-10-10-(11)-10-10-(11)-10-----
  --2/8*------------------------------------------
  ------------------------------------------------
  ------------------------------------------------
  ------------------------------------------------
  ------------------------------------------------

  ----8-8-8-8-8-8/10--10/5-5"6"5"6"5--5-5-5/3-3-3-  
  --1/8*------------------------------------------
  ------------------------------------------------
  ------------------------------------------------
  ------------------------------------------------
  ------------------------------------------------

  ------------------------------------------------  
  --1/6-6-6-6-6/8-8-8/3-3"4"3"4"3-----------------
  ------------------------------------------------
  ------------------------------------------------
  ------------------------------------------------
  ------------------------------------------------

  ------------------------------------------------  
  --1/6-6-6-6-6/8-8-8/9/8-------------------------
  ------------------------------------------------
  ------------------------------------------------
  ------------------------------------------------
  ------------------------------------------------

  -------------------------------------------------  
  --1/6-6-6-6-6/8-8-8/3-3"4"3"4"3--3-3-3/1-1-1-1-1-
  -------------------------------------------------
  -------------------------------------------------
  -------------------------------------------------
  -------------------------------------------------

Heavy part:

 ------------------------
 ------------------------
 ------------------------
 --5--7--8---------------
 --5--7--8---------------
 --5--7--8---------------

Gotta cut away...

    D  C  A#
  ----------- 
  -----------
  --7--5--3--
  --7--5--3--
  --5--3--1--
  --5--3--1--

repeat the first solo, and play 

  -------------------------
  -------------------------
  -------------------------
  --7777777/88-------------
  --5555555/66-------------
  --5555555/66-------------

  --------------------------------
  --8-10-11-8-10-11---------------
  -------------------7-5-7...-----
  --------------------------------
  --------------------------------
  --------------------------------

LYRICS: 

       Metaphor for a missing moment pull me into 
your perfect circle, one womb one shape one resolve,
liberate this will to release us all

Gotta cut away clear away snip away and sever this 
umbilical residue that's keeping me from killing 
you and from pulling you down with me here i can 
almost hear you scream

Give me one more medicated peaceful moment 
because i don't want to feel this 
overwhelming hostility

Gotta cut away clear away snip away and sever this
umbilical residue that's keeping me from killing you

THATS ALL! hope you like it. * means mute and " is slide
If you like to do any comment write to eaec@uol.com.co
Comments