Perfect Circle - Judith Chords & Tabs

 

Judith Chords & Tabs

Perfect Circle Chords & Tabs

Version: 2 Type: Tab 0 ratings
1 star 2 stars 3 stars 4 stars 5 stars
comments

Judith Tab

   
udith by APC.(ver2.0)  standard C# tuning (C# Gb B E Ab C#)
Tabbed by Neal Petrosky  Edravn25@aol.com
its an updated version of a tab I already posted.  I can garauntee that this is atleast 98%correct.
to play this you will need a slide, delay pedal, and whammy pedal
INTRO
guitar1 
|---------------------------------------------------------||
|---------------------------------------------------------||
|--7/9--9-9-xx7/9-10\9-7/9--7/9--9-9-9-9-/19-19-18\-------||
|---------------------------------------------------------||
|--5/7--7-7-xx5/7--8\7-5/7--5/7--7-7-7-7-/17-17-16\-------||
|---------------------------------------------------------|| 
guitar2
|---------------------------------------------------------||
|---------------------------------------------------------||
|--7/9--9-9-xx7/9-10\9-7/9--7/9--9-9-9-9-/19-19-18\-------||
|--7/9--9-9-xx7/9-10\9-7/9--7/9--9-9-9-9------------------||
|--5/7--7-7-xx5/7--8\7-5/7--5/7--7-7-7-7-/17-17-16\-------||
|---------------------------------------------------------|| 
INTERLUDE(0:09)with delay and reverb     
|----------------------------------------------------||
|----------------------------------------------------||
|--7h9--9-9-9-9-7h9-10p9-7h9--7h9--9-9-9-9-----------||
|------------------------------------------5--5--5/7-||
|----------------------------------------------------||
|----------------------------------------------------|| 
second time
|----------------------------------------------------||
|----------------------------------------------------||
|--7h9--9-9-9-9-7h9-10p9-7h9--7h9--9-9-9-9-----------||
|------------------------------------------5--5--5---||
|----------------------------------------------------||
|----------------------------------------------------|| 
(0:19)let feed back (when played live,slide along the B(D)string)
|-------------------------------------------------||
|-------------------------------------------------||
|-------------------------------------------------||
|--5\(0)-2--2^^^^^^^^^^^^^^^^~~~~~~~~~~~~~~~~~~~--||
|-------------------------------------------------||
|-------------------------------------------------|| 
VERSE
guitar2
pm...........................................
|---------------------------------------------||
|---------------------------------------------||
|---------------------------------------------||
|------------------------------------5--5--5--||
|-5h7-7-7--7-5-7-8-7-5-7-5-7-7-7-7-7-5--5--5--||
|-5h7-7-7--7-5-7-8-7-5-7-5-7-7-7-7-7-3--3--3--||      
last time right before "fuck your god" still pm

|---------------------------------------------||
|---------------------------------------------||
|---------------------------------------------||
|------------------------------------5--5--5--||
|-5h7-7-7--7-5h7-8-7-5-7-5-7-7-7-7-7-5--5--5--||
|-5h7-7-7--7-5h7-8-7-5-7-5-7-7-7-7-7-3--3--3--||   
.................................... ^guitar1 jumps in
guitars1 and 2
the "fuck yor god" part. pm only at the (......) guitar2 last time
|---------------------------------------------||----------------|
|---------------------------------------------||----------------|          
|---------------------------------------------||----------------|	
|------------------------------------5--5--5--||----------5-----| 
|-5h7-7-7--7-5h7-8-7-5-7-5h7-7-7-7-7-5--5--5--||--7-7-7-7-5-----|  
|-5h7-7-7--7-5h7-8-7-5-7-5h7-7-7-7-7-3--3--3--||--7-7-7-7-3-/6~-|
      ...................    .......              .......
PRE-CHORUS
guitar 1  
(1:01) 
|-----------------------------------------|
|-----------------------------------------|
|/15--15-15-15\14--14-14-14\9--9-9/10\9-9-|
|-----------------------------------------|
|/13--13-13-13\12--12-12-12\7--7-7//8\7-7-|
|-----------------------------------------|
guitar 2  1st time (palm mute)
|---------------------------------------------||
|---------------------------------------------||
|---------------------------------------------||
|------------------------------------5--5--5--||
|-5h7-7-7--7-5h7-8p7-5h7-5h7-7-7-7-7-5--5--5--||
|-5h7-7-7--7-5h7-8p7-5h7-5h7-7-7-7-7-3--3--3--||   
next 2 times (palm mute)
|---------------------------------------------||
|---------------------------------------------||
|------------------------------------12-12-12-||
|------------------------------------12-12-12-||
|-5h7-7-7--7-5h7-8p7-5h7-5h7-7-7-7-7-10-10-10-||
|-5h7-7-7--7-5h7-8p7-5h7-5h7-7-7-7-7-10-10-10-|| 
guitar 1 at "did it all for you"
|----------------------------------------|
|----------------------------------------|
|-14-----14\13-13--/16-16\18--11---------|
|----------------------------------------|
|-12-----12\11-11--/14-14\16---9---------|
|----------------------------------------|
guitar 2
|------------------------------------------||
|------------------------------------------||
|------------------------------------------||
|------------------------------------4-4-4-||
|-5h7-7-7--7-5h7-8p7-5h7-5h7-7-7-7-7-------||
|-5h7-7-7--7-5h7-8p7-5h7-5h7-7-7-7-7-2-2-2-|| 
p.m.................................
(1:19)use a slide  (when live, use delay too)         last time          
|---------17-17\----------15-15\-|--------17-17\-----------19/--||
|--/17-17----------/15-15--------|-/17-17----------/15-15-------||
|--------------------------------|------------------------------||
|--------------------------------|------------------------------||
|--------------------------------|------------------------------||
|--------------------------------|------------------------------|| 
this is the part playing under the riff tabbed above for 1:19
|-------------------------------------||
|-------------------------------------||
|-12-12-12-12--/-/--9--9--9--9-\------||
|-------------------------------------|| 
|-10-10-10-10--/-/--7--7--7--7--\-----||
|-------------------------------------||

|-------------------------------------||
|-------------------------------------||
|-12-12-12-12--/-/--9/10--9--9-9\-----||
|-------------------------------------|| 
|-10-10-10-10--/-/--7//8--7--7-7\-----||
|-------------------------------------||

|--------------------------------------------||
|--------------------------------------------||
|-14-14-14-14--/-/---7-7-7----7--\16-16/-----||
|--------------------------------------------||
|-12-12-12-12--/-/---5-5-5----5--\14-14/-----||
|--------------------------------------------||
(1:32) - w/ slide
|----------------------------------||
|-12--12/14-10----9---9/10---------||
|--------------------------9\------||
|----------------------------------||
|----------------------------------||
|----------------------------------|| 
guitar 2 a bunch of times (palm mute)
|---------------||
|---------------||
|---------------||
|---------------||
|-5h7--7-7------||
|----------0----||

(1:38) - still w/ slide x2   (let wring throught solo) last time
|-----------------------|-------------------------------------||
|-------15-14-----------|-------------------------------------||
|--/15-(15)---9-9/10\9--|-/15--15-14--9-9/10\9-9\7/9\7////////||
|-----------------------|------15-14--9-9/10\9-9\7/9\7////////||
|-----------------------|-------------------------------------||
|-----------------------|-------------------------------------||
 guitar 2 palm mute           
|--------------------------||
|--------------------------||
|--------------------------||
|--------------------------||
|--5h7-5---5---------------||
|--------7---7--0-0--0--0--||
SOLO guitar 2     w/digitech whammy set up an octave
|-------------------------------------------------------||
|-15h17-17-17--15h17\21/-15h17--15h17-17-17-12--12--12--||
|-------------------------------------------------------||
|-------------------------------------------------------||
|-------------------------------------------------------||
|-------------------------------------------------------||

|-------------------------------------------------------||
|-15h17-17-17--15h17\21/-15h17--15h17-17-17-12~~~~~~~---||
|-------------------------------------------------------||
|-------------------------------------------------------||
|-------------------------------------------------------||
|-------------------------------------------------------||
[ Tab from: http://www.guitartabs.cc/tabs/p/perfect_circle/judith_tab_ver_2.html ]
|---------------------------------------------------||
|/14--15~~~~~~--14--15~~~~~~-/15-15-15-15h17--------||
|--------------------------------------------14h16~-||
|---------------------------------------------------||
|---------------------------------------------------||
|---------------------------------------------------||
guitar1 x3    pm              last time
|-------------------------|----------------------||
|-------------------------|----------------------||
|-------------------------|----------------------||
|-------------------------|--77777/9-------------||
|-----------5h7-5---5-----|--55555/7--77777/7----||
|-0-0--0--0-------7---7---|-----------55555/9----||
both guitars
|---------------------------------------------------------||
|---------------------------------------------------------||
|---------------------------------------------------------||
|--7/9--9-9-xx7/9-10\9-7/9--7/9--9-9-9-9-/19-19-18\-------||
|--7/9--9-9-xx7/9-10\9-7/9--7/9--9-9-9-9------------------||
|--5/7--7-7-xx5/7--8\7-5/7--5/7--7-7-7-7-/17-17-16\-------||
|---------------------------------------------------------|| 
								        last time
|----------------------------------------------||--------------|
|----------------------------------------------||--------------|
|----------------------------------------------||--------------|
|-------------------------------------5--5--5--||---------5----|
|-5h7-7-7-7-7-5-7-8-7-5-7-5-7-7-7-7-7-5--5--5--||-7-7-7-7-5----|
|-5h7-7-7-7-7-5-7-8-7-5-7-5-7-7-7-7-7-3--3--3--||-7-7-7-7-3/15-| 
 .....................................            ........
both guitars          
|-----------------------------------------|
|-----------------------------------------|
|/15--15-15-15\14--14-14-14\9--9-9/10\9-9-|
|-----------------------------------------|
|/13--13-13-13\12--12-12-12\7--7-7//8\7-7-|
|-----------------------------------------|
at "he did it all for you"
|----------------------------------------|
|----------------------------------------|
|-14-----14\13-13--/16-14\18--11---------|
|----------------------------------------|
|-12-----12\11-11--/14-14\16---9---------|
|----------------------------------------|
use a slide  (when live, use delay too)             last time          
|---------17-17\----------15-15\-|--------17-17\-----------19/--||
|--/17-17----------/15-15--------|-/17-17----------/15-15-------||
|--------------------------------|------------------------------||
|--------------------------------|------------------------------||
|--------------------------------|------------------------------||
|--------------------------------|------------------------------|| 
this is the part playing under the riff tabbed above 
|-------------------------------------||
|-------------------------------------||
|-12-12-12-12--/-/--9--9--9--9-\------||
|-------------------------------------|| 
|-10-10-10-10--/-/--7--7--7--7-\------||
|-------------------------------------||

|-------------------------------------||
|-------------------------------------||
|-12-12-12-12--/-/--9/10--9--9-\------||
|-------------------------------------|| 
|-10-10-10-10--/-/--7//8--7--7-\------||
|-------------------------------------||

|---------------------------------------||
|---------------------------------------||
|-14-14-14-14--/-/---7-7-7-7-\-16-/-----||
|---------------------------------------||
|-12-12-12-12--/-/---5-5-5-5-\-14-/-----||
|---------------------------------------||
  w/ slide
|----------------------------------||
|-12--12/14-10----9---9/10---------||
|--------------------------9\------||
|----------------------------------||
|----------------------------------||
|----------------------------------|| 
guitar two
|----------------------------------||
|----------------------------------||
|-16--16/18-14---13--13/14-9-------||
|----------------------------------||
|-14--14/16-12---11--11/12-7-------||
|----------------------------------||
(2:59) use a slide
|-------------------------------------------------------------|
|-/17-17-17-17\15-15-15-15/19-19-19/21\17---------------------|
|-------------------------------------------------------------|
|-------------------------------------------------------------|
|-------------------------------------------------------------|
|-------------------------------------------------------------|

|-------------------------------------------------------------| 
|--/17-17-17-17\15-15-15/21\12-12-12/10-----------------------|
|-------------------------------------------------------------|
|-------------------------------------------------------------|
|-------------------------------------------------------------|
|-------------------------------------------------------------|
note:24 is not on a gibson fretboard...just slide past 22
|-----------------------------------------------------||
|-/17-17-17-17\15-15--/19-19-19-19////(24)------------||
|-----------------------------------------------------||
|-----------------------------------------------------||
|-----------------------------------------------------||
|-----------------------------------------------------|| 
guitar two, this is the part playing under the riff tabbed above 
|-------------------------------------||
|-------------------------------------||
|-12-12-12-12--/-/--9--9--9--9-\------||
|-------------------------------------|| 
|-10-10-10-10--/-/--7--7--7--7-\------||
|-------------------------------------||

|-------------------------------------||
|-------------------------------------||
|-12-12-12-12--/-/--9/10--9--9-\------||
|-------------------------------------|| 
|-10-10-10-10--/-/--7//8--7--7-\------||
|-------------------------------------||

|---------------------------------------||
|---------------------------------------||
|-14-14-14-14--/-/---7-7-7-7-\-16-/-----||
|---------------------------------------||
|-12-12-12-12--/-/---5-5-5-5-\-14-/-----||
|---------------------------------------||
  w/ slide
|----------------------------------||
|-12--12/14-10----9---9/10---------||
|--------------------------9\------||
|----------------------------------||
|----------------------------------||
|----------------------------------|| 
guitar two
|----------------------------------||
|----------------------------------||
|-16--16/18-14---13--13/14-9-------||
|----------------------------------||
|-14--14/16-12---11--11/12-7-------||
|----------------------------------||
use a slide  (when live, use delay too)         last time          
|---------17-17\----------15-15\-|--------17-17\-----------19/--||
|--/17-17----------/15-15--------|-/17-17----------/15-15-------||
|--------------------------------|------------------------------||
|--------------------------------|------------------------------||
|--------------------------------|------------------------------||
|--------------------------------|------------------------------||
guitar 2 for above riff (use slide)
|----------------------------------|
|----------------------------------|
|-/12-12-12-12-\\\-9-9-9-9---------|
|-/12-12-12-12-\\\-9-9-9-9---------|
|----------------------------------|
|----------------------------------|

|------------------------------------|
|------------------------------------|
|--//12-12-12-12--/14//9-9-9-9-9\\\\\|
|--//12-12-12-12--/14//9-9-9-9-9\\\\\|
|------------------------------------|
|------------------------------------|

|-------------------------------------|
|-------------------------------------|
|-///12-12-12-12-\--9-9-9-9-9-/14//16-|
|-///12-12-12-12-\--9-9-9-9-9-/14//16-|
|-------------------------------------|
|-------------------------------------|
w/ slide
|------------------------------||
|-12--12/14-10----9---9/10-----||
|--------------------------9\--||
|------------------------------||
|------------------------------||
|------------------------------|| 
guitar two
|------------------------------||
|------------------------------||
|-16--16\18-14---13--13\14-9---||
|------------------------------||
|-14--14\16-12---11--11\12-7---||
|------------------------------||
last time                                        
w/ slide
|------------------------------||
|-12--12/14-10----9---9/10-\12-||
|------------------------------||
|------------------------------||
|------------------------------||
|------------------------------||
guitar 2
|--------------------------------||
|----------------------------12--||
|-16--16\18-14---13--13\14---12--||
|----------------------------14--||
|-14--14\16-12---11--11\12----0--||
|-----------------------------0--||
Comments