Perfect Circle - Judith Chords & Tabs

 

Judith Chords & Tabs

Perfect Circle Chords & Tabs

Version: 1 Type: Tab 0 ratings
1 star 2 stars 3 stars 4 stars 5 stars
comments

Judith Tab

   
Artist- A Perfect Circle 
Song- Judith 
Tab- By Jonathan Bissonnette 

Tuning- Db Ab Db Gb Bb Eb 

Intro 
|-------------------------------------------------------| 
|-------------------------------------------------------| 
|---------------------------------------------17-17-16--| 
|-10h12-12-12--12-10-12-13-12-10--10h12-12-12-----------| 
|-10h12-12-12--12-10-12-13-12-10--10h12-12-12-15-15-14--| 
|-10h12-12-12--12-10-12-13-12-10--10h12-12-12-----------| x2 

|-----------------------------------------------------| 
|-----------------------------------------------------| 
|-----------------------------------------------------| 
|-10h12-12-12--12-10/12/13/12-10--10h12-12-12--12/3~--| 
|-----------------------------------------------------| 
|-----------------------------------------------------| x2 

|-------------| 
|-------------| 
|-------------| 
|-------------| 
|-8-8-8/5-5^--| 
|-------------| 
gradually bend 

Verse 

|-------------------------------------------------------| 
|-------------------------------------------------------| 
|-------------------------------------------------------| 
|-10h12-12-12--12-10-12-13-12-10--10h12-12-12--3-3-3----| 
|-10h12-12-12--12-10-12-13-12-10--10h12-12-12--3-3-3----| 
|-10h12-12-12--12-10-12-13-12-10--10h12-12-12--3-3-3----| 
p.m...........................  p.m............... 

Chorus 
|-----------------------------------| 
|-----------------------------------| 
|-13-13-13/12-12-12/7-7-7/8/7-------| 
|--x--x--x--x--x--x-x-x-x-x-x-------| 
|-11-11-11/10-10-10/5-5-5/6/5-------| 
|-----------------------------------| 

Part after chorus 
[ Tab from: http://www.guitartabs.cc/tabs/p/perfect_circle/judith_tab.html ]
|-----15-------13--|-----15-------17-| 
|-/15-----/13------|-/15-----/13-----| 
|------------------|-----------------| 
|------------------|-----------------| 
|------------------|-----------------| 
|------------------|-----------------| 

Interlude 

|-----------------------| 
|-----------------------| 
|-14/16/12/11/12/7------| 
|--x--x--x--x--x-x------| 
|-12/14/10/ 9/10/5------| 
|-----------------------| 

Before second verse 

|---------------------------| 
|----13~----12~---7-7-7h8p7-| 
|-13~----12~------7-7-7h8p7-| 
|---------------------------| 
|---------------------------| 
|---------------------------| 

|----------------------------------------------------------------| 
|-13h15-15-15--15-13-15-15/21-15-13--13h15-15-15--15-15p13-------| 
|----------------------------------------------------------14----| 
|----------------------------------------------------------------| 
|----------------------------------------------------------------| 
|----------------------------------------------------------------| 

Verse 2- same as verse 1st verse, except with these effects with the 
slide 

|-20~-19/20-20-20-20-22----| 
|-----------------------20-| 
|--------------------------| 
|--------------------------| 
|--------------------------| 
|--------------------------| 

Chorus- same as 1st chorus 

After Chorus part again 

interlude- same as other interlude 

Solo 

|-10-10-10-----------12/10--10-10-10--------------------------| 
|----------/13-13-13-----------------/13-13-13/10-10-10/8-8-8-| 
|-------------------------------------------------------------| 
|-------------------------------------------------------------| 
|-------------------------------------------------------------| 
|-------------------------------------------------------------| 

|-10-10-10-------12-12-12/17-| 
|----------13-13-------------| 
|----------------------------| 
|----------------------------| 
|----------------------------| 
|----------------------------| 
Interlude- same as others 

Part after chorus 

Outro- same as interlude
Comments