Perfect Circle - Hollow Chorus Solo Chords & Tabs

 

Hollow Chorus Solo Chords & Tabs

Perfect Circle Chords & Tabs

Version: 1 Type: Tab 0 ratings
1 star 2 stars 3 stars 4 stars 5 stars
comments

Hollow Chorus Solo Tab

|--16-19-16---------------------------------------------------------------------|
|-----------16-17-16------------------------------------14-14-------------------|
|--------------------16-----------------------------13--13-13------------16-14--|
|-----------------------18---------------16--18\-11-----11-11--16\14-14---------|
|--------------------------18h19-18--19-----------------------------------------|
|-------------------------------------------------------------------------------|

|------------------------------------------------------------------------------|
|-----15-15------------------------14-14---------------------------------------|
|--13-13-13------------16--14--13--13-13---------------------------------------|
|------------13/14-14--------------11-11---------------------------------------|
|------------------------------------------------------------------------------|
|------------------------------------------------------------------------------|
[ Tab from: http://www.guitartabs.cc/tabs/p/perfect_circle/hollow_chorus_solo_tab.html ]
Comments