Perfect Circle - Brena Chords & Tabs

 

Brena Chords & Tabs

Perfect Circle Chords & Tabs

Version: 1 Type: Tab 0 ratings
1 star 2 stars 3 stars 4 stars 5 stars
comments

Brena Tab

A Perfect Circle: Brena
tabbed by Darren Bencosky

Here is the opening bass riff arranged for guitar...
---------------------------------------------
---------------------------------------------
-----4----5p4---4---------4-----5p4-----4----
---2---2--2---2---2-----2----2--2----2-----2-
-4--------------------4----------------------
---------------------------------------------
[ Tab from: http://www.guitartabs.cc/tabs/p/perfect_circle/brena_tab.html ]
then...
------------------------------------------
------------------------------------------
-----0h4p0---------------0h4p0h4----------
-4h6-6------4--2----4h6--6----------------
-0---0------0--0----0----0----------------
------------------------------------------

there it looks a little complicated but when 
you play it especially acoustic it sounds really
good...
                                 thanx, peace...

Comments