Perfect Circle - 3 Libras Chords & Tabs

 

3 Libras Chords & Tabs

Perfect Circle Chords & Tabs

Version: 6 Type: Tab 1 rating
1 star 2 stars 3 stars 4 stars 5 stars
comments

3 Libras Tab

##################################################################################
# This file is the author's own work and represents their interpretation of the  #
# song. You may only use this file for private study, scholarship, or research.  #
##################################################################################

Tabbed by: Christopher Zamora

Now here's the complete, correct and easy way to play 
3 Libras...really! I watched the live version of this 
song...so, here it is! enjoy... 


The tuning of this song is (Db-Gb-B-E-Ab-Db)


 
  INTRO:

  Db|--------------------------------------------------|  
  Ab|--3--------3--3--------3--3--------3--7--------7--|
  E |-----0------------0-----------0-----------0-------|
  B |--------------------------------------------------|
  Gb|--3-----3-----3------3----3-----3-----7------7----|
  Db|--------------------------------------------------|

  Db|--------------------------------------------------|  
  Ab|--3--------3--3--------3--10-------10--7-------7--|
  E |-----0------------0-----------0-----------0-------|
  B |--------------------------------------------------|
  Gb|--3-----3-----3-----3-----10----10----7------7----|
  Db|--------------------------------------------------|
  
  2x
  then...
                                           |
                                           V (strum)  
  Db|--------------------------------------------------|  
  Ab|--8--------8--8--------8--8--------8-----------8--|
  E |-----0------------0-----------0-------------0-----|
  B |-----------------------------------------7--------|
  Gb|--8-----8-----8-----8-----8-----8-----8-----------|
  Db|--------------------------------------------------|

  
  verse 1
  "threw you..."

  Db|---------------------------------------------------| 
  Ab|--3--------3--3--------3--5--------5--6--------6---|
  E |-----0------------0-----------0-----------0--------|
  B |---------------------------------------------------|
  Gb|--3-----3-----3-----3-----5-----5-----6-----6------|
  Db|---------------------------------------------------|
  
  4x
  
  play this b4 going to "difficult not..."





  Db|-------------|
  Ab|--7-------7--|
  E |-----0-------|
  B |-------------|
  Gb|--7----7-----|
  Db|-------------|
[ Tab from: http://www.guitartabs.cc/tabs/p/perfect_circle/3_libras_tab_ver_6.html ]
  "difficult not..."
  
  Db|-----------------------------------------------------------|
  Ab|--3-------3--3------3--3--------3--10-------10--7-------7--|
  E |-----0----------0---------0------------0-----------0-------|
  B |-----------------------------------------------------------|
  Gb|--3-----3----3----3----3-----3-----10----10-----7-----7----|
  Db|-----------------------------------------------------------|

  Db|----------------------------------------|  
  Ab|--7--------7--7--------7--7--------7----|
  E |-----0-----------0-----------0----------|
  B |----------------------------------------|
  Gb|--7-----7-----7-----7-----7-----7-------|
  Db|----------------------------------------|
  
  "but i look..."

  Db|-----------------------------------------------------|
  Ab|--3--------3--3--------3--3---------3--10-------10---|
  E |-----0-----------0-----------0-------------0---------|
  B |-----------------------------------------------------|
  Gb|--3-----3-----3-----3-----3------3-----10----10------|
  Db|-----------------------------------------------------|
                                                      (*)
  Db|-----------------------------------------------------|  
  Ab|--7--------7--7--------7--8--------8--8--------8--8--|
  E |-----0-----------0-----------0-----------0-----------|
  B |-----------------------------------------------------|
  Gb|--7-----7-----7-----7-----8-----8-----8-----8-----8--| 
  Db|-----------------------------------------------------|

  Repeat verse 1 upto (*)
 
  Then...
 
  "So I threw..."
  
  Db|----------------|  
  Ab|----------------|
  E |--4444----55----|
  B |--5555-55-66----|
  Gb|--5555-66-66----|
  Db|--0000-66-44----|
  4x

  Repeat the intro, then...

  "You don’t see me..."
                       
  Db|----------------------------------|  
  Ab|----------------------0--1212--9--|
  E |----------------------5--1212--9--|  repeat, then...
  B |----------------------5--1010--7--|  
  Gb|--7-7-7-7-7-7-7/5-5---5--1010--7--|
  Db|----------------------0--1010--7--|
  
  ...this is the last one!!!
  Db|------------------------|  
  Ab|--7--8--------8888------|
  E |--9--10-------10101010--|
  B |--9--10-10-10-10101010--|
  Gb|--7--8--8--8--8888------|
  Db|--7--8--8--8--8888------|




That's it! That's the whole tab! Any questions? Comments? E-mail me at
subsextion@hotmail.com 
Comments