Perfect Circle - 3 Libras Chords & Tabs

 

3 Libras Chords & Tabs

Perfect Circle Chords & Tabs

Version: 5 Type: Tab 0 ratings
1 star 2 stars 3 stars 4 stars 5 stars
comments

3 Libras Tab

“Three Libras” by A Perfect Circle
Tabbed by kunfewzed@hotmail.com

[ Tab from: http://www.guitartabs.cc/tabs/p/perfect_circle/3_libras_tab_ver_5.html ]
Intro/Verse
|-----------|-----------|-----------|-----------------|----------------|
|-----------|-----------|-----------|7-----7----------|5-----5--5-----5|
|-4-----(3x)|-4\8-----8-|-4-----(3x)|---------9-----9-|----------------|
|---2-------|-----6-----|---2-------|--6--------6-----|--7--------7----|
|-0---0-----|-0\6---6---|-0---0-----|7--------7---7---|5---5----5---5--|
|-----------|-----------|-----------|----7------------|----------------|

Chorus
|-0-0-0-0-----------2-2-2-2----------|
|-0-0-0-0-----------2-2-2-2--3-3-3-3-|
|-2-2-2-2--2-2-2-2--4-4-4-4--4-4-4-4-|
|-2-2-2-2--2-2-2-2--4-4-4-4--5-5-5-5-|
|-0-0-0-0--2-2-2-2--2-2-2-2--5-5-5-5-|
|----------0-0-0-0-----------3-3-3-3-|
Comments