Perfect Circle - 3 Libras Chords & Tabs

 

3 Libras Chords & Tabs

Perfect Circle Chords & Tabs

Version: 4 Type: Tab 0 ratings
1 star 2 stars 3 stars 4 stars 5 stars
comments

3 Libras Tab

   
Artist- A Perfect Circle 
Song - 3 Libras 
Tab- By Jonathan Bissonnette 

Tuning- Db Ab Db Gb Bb Eb 

Intro 

Finger picking on an acoustic 

|-------------------------------------| 
|-----------------------------5-------| 
|-5-----5--5-----5--5-----5-----0---0-| 
|---0--------0--------0-----------0---| 
|-8---8----8---8----8---8-----5-------| 
|-------------------------------------| 

|------------------------------------| 
|-------------------8--------5-------| 
|-5-----5--5-----5----0---0----0---0-| 
|---0--------0----------0--------0---| 
|-8---8----8---8----8-------/5-------| 
|------------------------------------| 

Ending chord 

|-----------------------------| 
|-6-----6-6-----6-6-----6--6--| 
|---0---0---0---0---0---0--0--| 
|-----0-------0-------0----0--| 
|-6-------6-------6--------6--| 
|-----------------------------| 

Verse 

|------------------------------------| 
|-------------------5---------6------| 
|-5------5--5-----5----0---0---0---0-| 
|---0---------0----------0-------0---| 
|-8----8----8---8---5--------/6------| 
|------------------------------------|x4 
[ Tab from: http://www.guitartabs.cc/tabs/p/perfect_circle/3_libras_tab_ver_4.html ]
At the end of the forth time 
|-------| 
|-----5-| 
|-------| 
|---0---| 
|-5-----| 
|-------| 

Chorus 

|------------------------------------| 
|------------------------------------| 
|-5-----5--5-----5--5-----5--5-----5-| 
|---0--------0--------0--------0-----| 
|-8---8----8---8----8---8----8---8---| 
|------------------------------------| 

|------------------------------------| 
|-5-------5-------5-------5----------| 
|---0---0---0---0---0---0---0---0----| 
|-----0-------0-------0-------0------| 
|-5-------5-------5-------5----------| 
|------------------------------------| 

At the end of the chorus 
|----| 
|-6--| 
|-0--| 
|----| 
|-6--| 
|----| 

Verse 2- same as 1st verse 

Chorus 2- same as 1st chorus 

Bridge 

|-----------------------------------------| 
|-----------------------------------------| 
|-10-10-10-10-10-10-10-10/6-6-6-6---------| 
|-10-10-10-10-10-10-10-10/6-6-6-6-4-4-4-4-| 
|-8--8--8--8--8--8--8--8 /4-4-4-4-4-4-4-4-| 
|---------------------------------4-4-4-4-| 

Bridge-part two- same as the intro 

Outro 

|----------------------------| 
|----------------------------| 
|-7-5-7-5-7-9-14-17-9-7-5-10-| 
|-x-x-x-x-x-x--x--x-x-x-x--x-| 
|-5-3-5-3-5-7-12-15-7-5-3--8-| 
|----------------------------| 
tremelo.................... 

figure out the tremeloing time yourself 

End
Comments