Perfect Circle - 3 Libras Chords & Tabs

 

3 Libras Chords & Tabs

Perfect Circle Chords & Tabs

Version: 3 Type: Tab 1 rating
1 star 2 stars 3 stars 4 stars 5 stars
comments

3 Libras Tab

Title: 3 Libras
Artist: A Perfect Circle
Album: Mer de Noms
Transcribed by: Travis Weisenborn = wizard_wise@hotmail.com
NEW REVISED VERSION! 
This is my transcription of A Perfect Circle's song "3 Libras. Its a 
great song, but hard to figure out! Listen to the cd to get the
real feel for the song. 
***Tune G to high E*** Fret the D string on the seventh fret. This
is what your G string should now sound like.
Remember to finger pick the A and B strings at the same time. That's the key for getting 
the right sound.

Intro:

E-------------------------------------------------------------------------------
B--0---------0-----------0----------4-----------0---------0----------7----------
e-----2---2-----2---2-------2---2-------6---6------2---2-----2---2------9---9---
D-------2---------2-----------2-----------6----------2---------2----------9-----
A--0---------0-----------0----------4-----------0---------0----------7----------
E-------------------------------------------------------------------------------

[ Tab from: http://www.guitartabs.cc/tabs/p/perfect_circle/3_libras_tab_ver_3.html ]
 ---------------------------------------------------------------------------
 --4---------0---------0---------0---------4---------0---------0------------
 -----6---6-----2---2-----2---2-----2---2-----6---6-----2---2-----2---2-----
 -------6---------2---------2---------2---------6---------2---------2-------
 --4---------0---------0---------0---------4---------0---------0------------
 ---------------------------------------------------------------------------


 --------------------------------------------------------
 --7----------4----------5----------5----------5---------
 -----9---9------6---6------7---7------7---7-----7---7---
 -------9----------6----------7----------7---------7-----
 --7----------4----------5----------5----------5---------
 --------------------------------------------------------


Verse:

 -------------------------------------------
 --0---------0---------2----------4---------
 -----2---2-----2---2-----4---4------6---6-- x4 During verse
 -------2---------2---------4----------6----
 --0---------0---------2----------4---------
 -------------------------------------------

After the fourth time through during verse, play this:

 ---------------------------------  
 --5---------5---------5----------
 -----7---7-----7---7------7---7--
 -------7---------7----------7----
 --5---------5---------5----------
 ---------------------------------

As for the chorus.. I'm too lazy to finish that up on this tab. You can figure that one out for
yourselves..


But,thats pretty much the whole song. Just listen closely to the changes.
 If anyone has any questions, suggestions,complaints, anything, just email me. 
This is my own transcription, and only I reserve the right to it. Peace and keep on jammin'.
Comments