Perez - Picture Perfect Chords & Tabs

 

Picture Perfect Chords & Tabs

Perez Chords & Tabs

Version: 2 Type: Tab 0 ratings
1 star 2 stars 3 stars 4 stars 5 stars
comments

Picture Perfect Tab

   
Artist: Perez
Song: Picture Perfect
Album: Picture Perfect
Tabbed by: Jenna (rotten@anymail.co.za)

Intro
   A           Db         B   Gbsus   A
E|------------------------2-----2-----0-----|
B|-----2-----------6------4-----2-----2-----|
G|-------2---2------6-6---4-----4-----2-----|
D|---2-----2-----6---6----4-----4-----2-----|
A|-0-----------4----------2-----4-----0-----|
E|------------------------2-----x-----0-----|

(the intro then goes straight into the verse with the A)

Verse			     Chorus
     A    Db   B  Gbsus  	  A    E  Gbsus  B
E|---0----4----2----2---     E|---0----0----2----2---|
B|---2----6----4----2---     B|---2----0----2----4---|
G|---2----6----4----4---     G|---2----1----4----4---|
D|---2----6----4----4---     D|---2----2----4----4---|
A|---0----4----2----4---     A|---0----2----4----2---|
E|---0----4----2----x---     E|---0----0----x----2---|

Bridge
     E    A  Gbsus  B
E|---0----0----2----2---|
B|---0----2----2----4---|
G|---1----2----4----4---|
D|---2----2----4----4---|
A|---2----0----4----2---|
E|---0----0----x----2---|

IF SOMEONE COULD FIGURE OUT THE SOLO IT WOULD BE GREATLY APPRECIATED.
[ Tab from: http://www.guitartabs.cc/tabs/p/perez/picture_perfect_tab_ver_2.html ]
---------------------------------------------------------------------
If you want to comment on the tab, blatantly slate my attempt, give
me the solo or just talk weed-induced crap to a stranger email me at
the above adress.  I?ve seen Perez 3 times live (5fm birthday bash,
splashy fen, when they performed at Burn in Durbs) and they really
rocked each time.  I?m also in the middle of tabbing ?Smells like
music? and ?Come down? (also on the Picture Perfect album) so watch
this space.  Just a thought - how many other South Africans actually
use this site??
---------------------------------------------------------------------

Lyrics (They?re probably wrong...don?t take my word for it!)

(verse 1)
Tell yourself it?s wrong
Tokyo has gone back to the queen
Ask and you might feel
Another plastic circus so unreal

(chorus)
Slowly in her eyes
It?s picture perfect
The colours you disguise
In your picture perfect
World

(verse 2)
Ask yourself it?s wrong
Tokyo has gone back to the queen
Ask and you might feel
Another plastic circus so unreal

(chorus)
Slowly in your eyes
It?s picture perfect
The colours you despise
They?re picture perfect
Slowly in your eyes
It?s picture perfect
The colours you despise
In your picture perfect
World

(bridge)
I don?t have to dream
In my picture perfect
Wake me up to scream
In my picture perfect
Chop me into pieces
Picture perfect
You don?t have to dream
In your picture perfect
World

(solo)

(repeat of verse lines 1&2)
(repeat of bridge)
Comments