Perez - Dreams And Troubles Chords & Tabs

 

Dreams And Troubles Chords & Tabs

Perez Chords & Tabs

Version: 1 Type: Tab 0 ratings
1 star 2 stars 3 stars 4 stars 5 stars
comments

Dreams And Troubles Tab

   
Perez - Dreams And Troubles
-=========================-

Tabbed By:                 Clayton Botha
Questions & Comments:      theno69@hotmail.com
Remarks:                   Amazing Song (Buy The CD)

Intro: C-Am-Em-F
-==============-
e|---------------------------------------------------------------------------|
B|-13~~~-12-13-12-10---10----------------------------------------------------|
G|-------------------9----9~~~-9-10--12--10-9--------------------------------|
D|--------------------------------------------10-----------------------------|
A|---------------------------------------------------------------------------|
E|---------------------------------------------------------------------------|

e|---------------------------------------------------------------------12----|
B|-13~~~-12-13-13/15-13-12h13p12-\-10-12b13r12b13r12-10-------------------13-|
G|------------------------------------------------------9~~~-[9][10][9]------|
D|---------------------------------------------------------------------------|
A|---------------------------------------------------------------------------|
E|---------------------------------------------------------------------------|


Verse-1: Em-F-Am-C
-================-
Em            F                       Am          C
Pack all your dreams and troubles and chase them away, i
Em                F                Am               C
Know where you're comming from and i know where its safe, so
Em            F                       Am          C   C C C C C
Pack all your dreams and troubles and chase them away


Build: C-Am-Em-F
-==============-
               Am
Oooh Oooh Ohhh
               Em
Oooh Oooh Ohhh
               F
Oooh Oooh Ohhh


Verse-2: Em-F-Am-C
-================-
Em            F              Am       C
Walked out of my surrounding all i do wait, for
Em       F             Am             C
A little sympathy, the smile that you fake, so
Em            F                       Am          C
Pack all your dreams and troubles and chase them away, i
Em                F                Am               C   C C C C C
Know where you're comming from and i know where its safe


Build: C-Am-Em-F
-==============-
               Am
Oooh Oooh Ohhh
               Em
Oooh Oooh Ohhh
               F
Oooh Oooh Ohhh

[ Tab from: http://www.guitartabs.cc/tabs/p/perez/dreams_and_troubles_tab.html ]
Chorus: C-Am-Em-F
-===============-
C                                 Am
And i aint driving faster in your car
                Em     F
Theres no where you go
C                        Am
Pictures on the bathroom sink
         Em    F
So empty,    Ohhh


Solo: C-Am-Em-F
-=============-
e|----------15----------15----|-------15----------15-12-|-------15----------15-13-|
B|-13-12h13----13-12h13-------|-12h13----13-12h13-------|-12h13----13-12h13-------|
G|-------------------------14-|-------------------------|-------------------------|
D|----------------------------|-------------------------|-------------------------|
A|----------------------------|-------------------------|-------------------------|
E|----------------------------|-------------------------|-------------------------|

e|-------15-------------------------------------------------------------------|
B|-12h13----13-12h13-15-13~~~-12h13-13/15-13-12h13p12\10-12b13r12b13r12-10----|
G|-------------------------------------------------------------------------9--|
D|----------------------------------------------------------------------------|
A|----------------------------------------------------------------------------|
E|----------------------------------------------------------------------------|

e|-------15----------15-13-[12]-----------|
B|-12h13----13-12h13-----------[12h13p12]-|
G|----------------------------------------|
D|----------------------------------------|
A|----------------------------------------|
E|----------------------------------------|

Verse-3: Em-F-Am-C
-================-
Em            F                       Am          C
Pack all your dreams and troubles and chase them away, i
Em                F                Am
Know where you're comming from and i
"STOP"
I know where its safe


Chorus: C-Am-Em-F
-===============-
C                                 Am
And i aint driving faster in your car
                Em     F
Theres no where you go
C                        Am
Pictures on the bathroom sink
         Em    F
So empty,    Ohhh

C                   F
Kiss your world goodbye
C                  F
Kiss your world so high
C                   C   F
Kiss your world goodbye


Outro: C-F-C
-==========-
e|---------------------------8-|
B|-8~~~-6-5-------6/8~~~-6-5---|
G|----------5~~~---------------|
D|-----------------------------|
A|-----------------------------|
E|-----------------------------|


         /--------------------------------------------------/
        ///----------------------------------------------///
       /// //=====// //===== //=====// //===== =====//  ///
      /// //     // //      //     // //          //   ///
     /// //=====// //===== //=====// //=====    //    ///       
    /// //        //      //   \\   //        //     ///
   /// //        //===== //     \\ //=====  //===== ///          
  ///----------------------------------------------///
 /--------------------------------------------------/

Comments