Pepper - Stone Love Chords & Tabs

 

Stone Love Chords & Tabs

Pepper Chords & Tabs

Version: 1 Type: Tab 0 ratings
1 star 2 stars 3 stars 4 stars 5 stars
comments

Stone Love Tab

/-Slide Down
h-hammer on


e|-9-9-9-7-------------------------------------------9p11-12-11------------|
B|---------9-7-5-7-9-10-9------------------------8p10----------------------|
G|--------------------------9/--8h9-6-8-6-9---7h9--------------------------|
D|-------------------------------------------------------------------------|
A|-------------------------------------------------------------------------|
E|-------------------------------------------------------------------------|
[ Tab from: http://www.guitartabs.cc/tabs/p/pepper/stone_love_tab.html ]
e|-------------------------------------------------------------------------|
B|--10-9-------------------------------------------------------------------|
G|-------9-10----10-10-10-10-10-10-10---7-7-7-5----------------------------|
D|----------------------------------------------7-5-3-5-7-8-7-8-10-8-7-5/0-|
A|-------------------------------------------------------------------------|
E|-------------------------------------------------------------------------|


It's pretty acurate for the most part.  If you play it, it sounds like the song.
Comments