Pepper - Stone Love Chords & Tabs

 

Stone Love Chords & Tabs

Pepper Chords & Tabs

Version: 1 Type: Bass Tab 0 ratings
1 star 2 stars 3 stars 4 stars 5 stars
comments

Stone Love Bass Tab

/ - slide down


|-----------------------------------|
|-----------------------------------|
|-4---4--6-7/0----------------------|
|---4----------0--2--4-4----4-7-4-7-|

|-----------------------------------|
|-----------------------------------|
|-4---4--6-7/0----------------------|
|---4----------0--2--4-4----4-7-4-7-|

[ Tab from: http://www.guitartabs.cc/tabs/p/pepper/stone_love_btab.html ]
|-----------------------------------|
|-----------------------------------|
|-4---4--6-7/0----------------------|
|---4----------0--2--4-4----4-7-4-7-|

|-----------------------------------|
|-----------------------------------|
|-4---4--6-7/0----------------------|
|---4----------0--2--4-4----4-7-4-7-|

|-----------------------------------|
|-----------------------------------|
|-4---4--6-7/0----------------------|
|---4----------0--2--4-4----4-7-4-7-|
Play it over and over and that's pretty much the whole bass part
Comments