Pepper - Sittin On The Curb Chords & Tabs

 

Sittin On The Curb Chords & Tabs

Pepper Chords & Tabs

Version: 1 Type: Bass Tab 0 ratings
1 star 2 stars 3 stars 4 stars 5 stars
comments

Sittin On The Curb Bass Tab

-------------------------------------------------------------------------------
			     pepper-sittin on the curb
-------------------------------------------------------------------------------

Tabbed By : brent
e-mail: b1bout2jam@yahoo.com

Tuning:EADG

G|-----------------------------------------------------------------------|
D|------8-8----------------8-8-------------------------------------------|
A|--66-6-6-6-----6-6---66-6-6-6------------------------------------------|
E|-----------44-4-4-4-----------6-66-6-3h4-------------------------------|
[ Tab from: http://www.guitartabs.cc/tabs/p/pepper/sittin_on_the_curb_btab.html ]
G|----12----------------------------------------------------------------|
D|--10--10--------------------------------------------------------------|
A|-88-------666-6-------------------------------------------------------|
E|---------------888--6-66-3h4------------------------------------------|

G|----------------------------------------------------------------------|
D|------8-8---------6-6-------------------------------------------------|
A|--66-6-6-6----44-4-4-4--------------------------------- --------------|
E|----------------------------------------------------------------------|
Comments