Pepper - Hunny Girl Chords & Tabs

 

Hunny Girl Chords & Tabs

Pepper Chords & Tabs

Version: 1 Type: Tab 0 ratings
1 star 2 stars 3 stars 4 stars 5 stars
comments

Hunny Girl Tab

   
-------------------------------------------------------------------------------
                                                    HUNNY GIRL - Pepper
-------------------------------------------------------------------------------
Tabbed by: Mike Hartl
E-mail: mikehartl@gmail.com

Tuning: Standard

Intro
E|-------------------------------|-------------------------------|
B|-------------------------------|-------------------------------|
G|-------------------------------|-------------------------------|
D|-------------2--3--5--3--2-----|-------------------------3-----|   x3
A|--3----3--3-----------------3--|-------------2--3--5--3-----5--|
E|-------------------------------|--3----3--3--------------------|


Verse      (Technically this is bass, but guitar could palm mute or use chords C/F/C/G/F).
E|--8---x--|-----------------------------------------------------------------|
B|--8---x--|-----------------------------------------------------------------|
G|--9---x--|-----------------------------------------------------------------|
D|--10--x--|-----------------------------------------------------------------|
A|--10--x--|--3--3--3-----------------------3--3----3--3--3------------------|
E|--8---x--|-------------1--1----1--1--1-----------------------3--3----1--1--|


            Guitar Palm Mute
E|--8---x--|------------------------------------------------------------------|
B|--8---x--|--13--13--13--13--13--13--13--13----------------------------------|
G|--9---x--|----------------------------------10--10--10--10--10--10--10--10--|
D|--10--x--|------------------------------------------------------------------|
A|--10--x--|------------------------------------------------------------------|
E|--8---x--|------------------------------------------------------------------|


Guitar Palm Mute
E|--------------------------------------------------------------------8---|
B|--------------------------------------------------------------------8---|
G|--12--12--12--12--12--12--12--12--10--10--10--10--10--10--10--10----9---|
D|--------------------------------------------------------------------10--|
A|--------------------------------------------------------------------10--|
E|--------------------------------------------------------------------8---|


Chorus
E|-------------------------------|-------------------------------|
B|-------------------------------|-------------------------------|
G|-------------------------------|-------------------------------|
D|-------------2--3--5--3--2-----|-------------------------3-----|  
A|--3----3--3-----------------3--|-------------2--3--5--3-----5--|
E|-------------------------------|--3----3--3--------------------|

E|-------------------------------|----------------------------------|
B|-------------------------------|----------------------------------|
G|-------------------------------|----------------------------------|
D|-------------2--3--5--3--2-----|-------------3p2------------------|   x2
A|--3----3--3-----------------3--|--3----3--3------------------2h3--|
E|-------------------------------|------------------3----3--3-------|


End of Chorus
E|-----------------------------------8---|
B|-----------------------------------8---|
G|-----------------------------------9---|
D|-------------2--3--5--3--2---------10--|
A|--3----3--3-----------------3------10--|
E|-----------------------------------8---|


Verse (Technically this is bass, but guitar could palm mute or use chords C/F/C/G/F).
E|---------------------------------------------------------------------|
B|---------------------------------------------------------------------|
G|---------------------------------------------------------------------|
D|---------------------------------------------------------------------|
A|--3--3----3-3-3---------------------3--3----3-3-3--------------------|
E|--------------------1--1----1-1-1---------------------3--3----1--1---|

[ Tab from: http://www.guitartabs.cc/tabs/p/pepper/hunny_girl_tab.html ]
Guitar Palm Mute
E|------------------------------------------------------------------|
B|--13--13--13--13--13--13--13--13----------------------------------|
G|----------------------------------10--10--10--10--10--10--10--10--|
D|------------------------------------------------------------------|
A|------------------------------------------------------------------|
E|------------------------------------------------------------------|


Guitar Palm Mute
E|--------------------------------------------------------------------8---|
B|--------------------------------------------------------------------8---|
G|--12--12--12--12--12--12--12--12--10--10--10--10--10--10--10--10----9---|
D|--------------------------------------------------------------------10--|
A|--------------------------------------------------------------------10--|
E|--------------------------------------------------------------------8---|


Chorus
E|-------------------------------|-------------------------------|
B|-------------------------------|-------------------------------|
G|-------------------------------|-------------------------------|
D|-------------2--3--5--3--2-----|-------------------------3-----|  
A|--3----3--3-----------------3--|-------------2--3--5--3-----5--|
E|-------------------------------|--3----3--3--------------------|

E|-------------------------------|----------------------------------|
B|-------------------------------|----------------------------------|
G|-------------------------------|----------------------------------|
D|-------------2--3--5--3--2-----|-------------3p2------------------|   x2
A|--3----3--3-----------------3--|--3----3--3------------------2h3--|
E|-------------------------------|------------------3----3--3-------|


End of Chorus
E|-------------------------------|
B|-------------------------------|
G|-------------------------------|
D|-------------2--3--5--3--2-----|
A|--3----3--3-----------------3--|
E|-------------------------------|


Bridge Chords (Dm/G/Dm/G/C/F/G)
E|--5------3------5------3------3------1------3--|
B|--6------3------6------3------5------1------3--|
G|--7------4------7------4------5------2------4--|
D|--7------5------7------5------5------3------5--|
A|--5------5------5------5------3------3------5--|
E|---------3-------------3-------------1------3--|


End of Bridge
E|-------------------------------|-------------------------------|
B|-------------------------------|-------------------------------|
G|-------------------------------|-------------------------------|
D|-------------2--3--5--3--2-----|-------------------------3-----|   x2
A|--3----3--3-----------------3--|-------------2--3--5--3-----5--|
E|-------------------------------|--3----3--3--------------------|


Breakdown Chorus (C/F/C/F/G)
E|--8-------1------8-------1----3--|
B|--8-------1------8-------1----3--|
G|--9-------2------9-------2----4--|
D|--10------3------10------3----5--|
A|--10------3------10------3----5--|
E|--8-------1------8-------1----3--|


Chorus
E|-------------------------------|-------------------------------|
B|-------------------------------|-------------------------------|
G|-------------------------------|-------------------------------|
D|-------------2--3--5--3--2-----|-------------------------3-----|  
A|--3----3--3-----------------3--|-------------2--3--5--3-----5--|
E|-------------------------------|--3----3--3--------------------|

E|-------------------------------|----------------------------------|
B|-------------------------------|----------------------------------|
G|-------------------------------|----------------------------------|
D|-------------2--3--5--3--2-----|-------------3p2------------------|   x2
A|--3----3--3-----------------3--|--3----3--3------------------2h3--|
E|-------------------------------|------------------3----3--3-------|


Outro
E|-------------------------------|-------------------------------|
B|-------------------------------|-------------------------------|
G|-------------------------------|-------------------------------|
D|-------------2--3--5--3--2-----|-------------------------3-----|   x2
A|--3----3--3-----------------3--|-------------2--3--5--3-----5--|
E|-------------------------------|--3----3--3--------------------|



************************************

| /   slide up
| \   slide down
| h   hammer-on
| p   pull-off
| ~   vibrato
| +   harmonic
| x   Mute note
| b   Bend
| pb  Pre-bend
| br  Bend release
| pbr Pre-bend release
| brb Bend release bend

************************************
Comments