Pepper - Back Home Chords & Tabs

 

Back Home Chords & Tabs

Pepper Chords & Tabs

Version: 2 Type: Tab 0 ratings
1 star 2 stars 3 stars 4 stars 5 stars
comments

Back Home Tab

   
-------------------------------------------------------------------------------
			     Back Home - Pepper
-------------------------------------------------------------------------------
Tabbed by:Pepper_s
Email:Skip@37.com
[ Tab from: http://www.guitartabs.cc/tabs/p/pepper/back_home_tab_ver_2.html ]
Tuning:standard
Verse
e|--------x-----------------------------------------------------------------|
B|--------x-----------------------------------------------------------------|
G|-------7\9-----7----------------------------------------------------------|
D|--------x--------------------9------7-------------------------------------|
A|------ 5\7-----5-------------9------7-------------------------------------|
E|--------x--------------------7------5-------------------------------------|

chorus Probly wrong
e|---------------------------------------------------------------------------|
B|---------------------------------------------------------------------------|
G|---------------------------------------------------------------------------|
D|------4----5----7---9------------------------------------------------------|
A|------4----5----7---9------------------------------------------------------|
E|------2----3----5---7------------------------------------------------------|

| /  slide up
| \  slide down
| h  hammer-on
| p  pull-off
| ~  vibrato
| +  harmonic
| x  Mute note
===============================================================================
Comments