Pepper - Back Home Chords & Tabs

 

Back Home Chords & Tabs

Pepper Chords & Tabs

Version: 1 Type: Tab 0 ratings
1 star 2 stars 3 stars 4 stars 5 stars
comments

Back Home Tab

ok this is my second try at tabbing out something, so please tell me what you
think. this is a really easy song and the intro riff repeats many times
throughout the song. im too lazy to figgure out the interlude part so maybee ill get it later
[ Tab from: http://www.guitartabs.cc/tabs/p/pepper/back_home_tab.html ]
intro/main riff
E|----------7-7-x-5-5-xx-|
B|----------7-7-x-5-5-xx-|
G|-7h9-7-7--7-7-x-5-5-xx-|
D|-7h9-7-7---------------|
A|-7---7-7---------------|
E|-----------------------|

Chorus (you figgure out strumming)
E|------------|
B|------------|
G|-2--4--7--9-|
D|-2--4--7--9-|
A|-0--2--5--7-|
E|------------|
Comments