Pepper - Ashes Chords & Tabs

 

Ashes Chords & Tabs

Pepper Chords & Tabs

Version: 1 Type: Tab 0 ratings
1 star 2 stars 3 stars 4 stars 5 stars
comments

Ashes Tab

Cool sounding song. Saw the tab somewhere and found that the one currently here was off. 
here ya go.
Standard Tuning

Song- Ashes
Band- Pepper
[ Tab from: http://www.guitartabs.cc/tabs/p/pepper/ashes_tab.html ]
Main riff
e------------------------------------------------------|
B--------------------------------------7-7-7-x-x-------|
G-9-9-9-x-x----5-5-5-x-x---------------7-7-7-x-x-------|
D-9-9-9-x-x----5-5-5-x-x---5-5-5-x-x---5-5-5-x-x-------|
A-7-7-7-x-x----3-3-3-x-x---5-5-5-x-x-------------------|
E--------------------------3-3-3-x-x-------------------|

e------------------------------------------------------|
B--------------------------------------7-7-7s8---------|
G-9-9-9-x-x----5-5-5-x-x---------------7-7-7s8---------|
D-9-9-9-x-x----5-5-5-x-x---5-5-5-x-x---5-5-5s6---------|
A-7-7-7-x-x----3-3-3-x-x---5-5-5-x-x-------------------|
E--------------------------3-3-3-x-x-------------------|
Comments