Pep Squad - Angel Chords & Tabs

 

Angel Chords & Tabs

Pep Squad Chords & Tabs

Version: 2 Type: Bass Tab 0 ratings
1 star 2 stars 3 stars 4 stars 5 stars
comments

Angel Bass Tab

Angel 
By Pep Squad
tabbed by Paul Cahill at patcpro@aol.com


Intro

e------------------------
a 0-2--------------------
d------------------------
g------------------------

verse 

e-----------------555----------------------------------------------------
a-22--333--777--------22---333--777--555-------------------------------
d-------------------------------------------------------------------------
g------------------------------------------------------------------------

chorus
[ Tab from: http://www.guitartabs.cc/tabs/p/pep_squad/angel_btab_ver_2.html ]
e----------------------------------------------------------------------
a22222222222222--33333333333333--77777777777777--55555555555555
d----------------------------------------------------------------------
g----------------------------------------------------------------------


chorus outro
e------------------------------------------------------------------------
a2--2/3--22222-----------------------------------------------------------
d----------------2-------------------------------------------------------
g------------------------------------------------------------------------

Break
a--2--2------------------------------------------------------------------
a------------------------------------------------------------------------
d------------------------------------------------------------------------
g------------------------------------------------------------------------


Song order:
Intro
Verse
Chorus
Chorus outro
Verse 
Chorus
Break
Verse
Chorus Outro
Intro
Comments