Pentagram - Sign Of The Wolf Chords & Tabs

 

Sign Of The Wolf Chords & Tabs

Pentagram Chords & Tabs

Version: 1 Type: Tab 0 ratings
1 star 2 stars 3 stars 4 stars 5 stars
comments

Sign Of The Wolf Tab

   
Gtrs I, II
        PM------------------|
|-------------------|-------------------|
|-------------------|-------------------|
|-9-(9)-------------|-------------------|
|-9-(9)-------------|---------5-4-3-(3)-|
|-7-(7)-------------|---------5-4-3-(3)-|
|-------0-0-0-0-0-0-|-0-0-0-0-3-2-1p=0--|

          PM------------------|               PM------------|
                               (4th time 
                                dont play 
                                this)      4x 
||--------------------|--------------------||-----------------|
||o-------------------|-------------------o||-----------------|
||--------------------|--------------------||-----------------|
||--2-(2)-------------|---------5-4-3-(3)--||-----------------|
||o-2-(2)-------------|---------5-4-3-(3)-o||-----------------|
||--0-(0)-0-0-0-0-0-0-|-0-0-0-0-3-2-1p=0---||-0-0-0-0-0-0-0-0-|


   Verse
          PM------|                       PM------|
||--------------------|-----------|-------------------|----------||
||o-------------------|-----------|-------------------|---------o||
||--9-(9)-------------|----5------|-2-(2)-----------7-|--7-9-----||
||--9-(9)-----------5-|--5-5------|-2-(2)-----------7-|--7-9-----||
||o-7-(7)-----------5-|--5-3------|-0-(0)-0-0-0-0-0-5-|--5-7----o||
||--------0-0-0-0-0-3-|--3--------|-------------------|----------||


   Pre-Chorus
                                     D.S.
    Gtr I
                                         ~
||-----------|----------|-----------|----------||
||o----------|----------|-----------|---------o||
||--7--------|-5--------|-9-------7-|--7-9-----||
||--7--------|-5--------|-9---------|----------||
||o-5--------|-3--------|-7---------|---------o||
||-----------|----------|-----------|----------||
|
|   Gtr II
||-----------|----------|-----------|----------||
||o----------|----------|-----------|---------o||
||--7--------|-5--------|-9-------7-|--7-9-----||
||--7--------|-5--------|-9-------7-|--7-9-----||
||o-5--------|-3--------|-7-------5-|--5-7----o||
||-----------|----------|-----------|----------||


 Chorus
  Gtrs I, II
|-----------------|-----------|-----------------|----------|
|-----------------|-----------|-----------------|----------|
|---------------7-|--7-9------|---------------7-|--7-9-----|
|-----5-------5-7-|--7-9------|-----5-------5-7-|--7-9-----|
|-5-7---7-5-7---5-|--5-7------|-5-7---7-5-7---5-|--5-7-----|
|-----------------|-----------|-----------------|----------|


 Guitar Solo
  Gtr I
|------------12h=15p12------------------------------|
|-15b17-(15)-----------15p12h15p12------------------|
|----------------------------------14-x-14p12-12h14-|
|---------------------------------------------------|
|---------------------------------------------------|
|---------------------------------------------------|
|
| Gtr II
|                 PM--------------------|
|---------------------------------------------------|
|---------------------------------------------------|
|--9---------(9)------------------------------------|
|--9---------(9)-------------------------------5----|
|--7---------(7)-------------------------------5----|
|-----------------0-----0-----0-----0----0-----3----|
                                              ~~~~~~~~~~~~~~~~~~
|------------------------------------------------------------------------|
|------------12-(12)-15p12-----------------------------------------------|
|-14b16-(14)---------------14p12-14b16-(14)-(14)-(14)-(14)-(14)-11-(11)--|
|------------------------------------------------------------------------|
|------------------------------------------------------------------------|
|------------------------------------------------------------------------|
|
|------------------------------------------------------------------------|
|------------------------------------------------------------------------|
|---------------------5--------------------------------------------------|
|-------------5-------5--------------------------------------------------|
|-------------5-------3--------------------------------------------------|
|-------------3----------------------------------------------------------|

|--------------------------------------------------------------|
|--------------------------------------------------------------|
|-12p11--------------------------11h12p11-(11)-12-(12)-11-(11)-|
|-------14--(14)-12-(12)-14-(14)-------------------------------|
|--------------------------------------------------------------|
|--------------------------------------------------------------|
|
|                 PM---------------------------|
|--------------------------------------------------------------|
|--------------------------------------------------------------|
|--2----(2)---------------------------------------------7------|
|--2----(2)---------------------------------------------7------|
|--0----(0)-------0-------0-------0-----0-------0-------5------|
|--------------------------------------------------------------|
                                       ~~~~
|----------------------------------------------|
|-------------------------------------------12-|
|-14-(14)-12-(12)-14-(14)-14b16-(14)-(14)------|
|----------------------------------------------|
|----------------------------------------------|
|----------------------------------------------|
|
|----------------------------------------------|
|----------------------------------------------|
|----------7-------9---------------------------|
|----------7-------9---------------------------|
|----------5-------7---------------------------|
|----------------------------------------------|

|--------------10-(10)-------------------------12-(12)-15-(15)-|
|-15-12----------------12-(12)---------15-(15)-----------------|
|-------14--12-------------------------------------------------|
|------------------------------14-(14)-------------------------|
|--------------------------------------------------------------|
|--------------------------------------------------------------|
|
|               PM-----------------------------|
|--------------------------------------------------------------|
|--------------------------------------------------------------|
|--9----(9)----------------------------------------------------|
|--9----(9)---------------------------------------------5------|
|--7----(7)---------------------------------------------5------|
|---------------0-------0-------0-------0-------0-------3------|

                                           ~~~~
|-15b17==(15)-15-(15)-15r(15)-15b17-(15)-(15)---12-(12)-|
|-------------------------------------------------------|
|-------------------------------------------------------|
|-------------------------------------------------------|
|-------------------------------------------------------|
|-------------------------------------------------------|
|
|-------------------------------------------------------|
|-------------------------------------------------------|
|----------------------5--------------------------------|
|--------------5-------5--------------------------------|
|--------------5-------3--------------------------------|
|--------------3----------------------------------------|

|-15-12-----------------------------------------------------------|
|-------15--12----------------------------------------------------|
|--------------14-(14)-12-(12)-14b16r(14)-12-(12)---------12-(12)-|
|-------------------------------------------------14-(14)---------|
|-----------------------------------------------------------------|
|-----------------------------------------------------------------|
|
|               PM--------------------------------|
|-----------------------------------------------------------------|
|-----------------------------------------------------------------|
|--2----(2)------------------------------------------------7------|
|--2----(2)------------------------------------------------7------|
|--0----(0)-----0-------0-------0----------0-------0-------5------|
|-----------------------------------------------------------------|
                                      ~~~~
|-------------------------------------------|
|-------------------------------------------|
|-14b16==(14)r(14)-12-----------------------|
|---------------------14-(14)-12-14-(14)----|
|-------------------------------------------|
|-------------------------------------------|
|
|-------------------------------------------|
|-------------------------------------------|
|---------------7------9--------------------|
|---------------7------9--------------------|
|---------------5------7--------------------|
|-------------------------------------------|

[ Tab from: http://www.guitartabs.cc/tabs/p/pentagram/sign_of_the_wolf_tab.html ]
 Guitar Solo II
|----13-12-------12-13----|----13-12-------12-13----|
|-15-------13-15-------15-|-15-------13-15-------15-|
|-------------------------|-------------------------|
|-------------------------|-------------------------|
|-------------------------|-------------------------|
|-------------------------|-------------------------|
|
|-------------------------|-------------------------|
|-------------------------|-------------------------|
|--7----------------------|--5----------------------|
|--7----------------------|--5----------------------|
|--5----------------------|--3----------------------|
|-------------------------|-------------------------|

|----15-14-------14-15----|----15-14-------14-15----|
|-17-------15-17-------17-|-17-------15-17-------17-|
|-------------------------|-------------------------|
|-------------------------|-------------------------|
|-------------------------|-------------------------|
|-------------------------|-------------------------|
|
|-------------------------|-------------------------|
|-------------------------|-------------------------|
|--9--------------------7-|-----7--9----------------|
|--9--------------------7-|-----7--9----------------|
|--7--------------------5-|-----5--7----------------|
|-------------------------|-------------------------|

|----13-12-------12-13----|----13-12-------12-13----|
|-15-------13-15-------15-|-15-------13-15-------17-|
|-------------------------|-------------------------|
|-------------------------|-------------------------|
|-------------------------|-------------------------|
|-------------------------|-------------------------|
|
|-------------------------|-------------------------|
|-------------------------|-------------------------|
|--7----------------------|--5----------------------|
|--7----------------------|--5----------------------|
|--5----------------------|--3----------------------|
|-------------------------|-------------------------|
                                                ~~~~
|----15-14-------14-15-------|------------------------|
|-17-------15-17-------------|-15-12-15-15b17-(15)----|
|----------------------------|------------------------|
|----------------------14-12-|------------------------|
|----------------------------|------------------------|
|----------------------------|------------------------|
|
|----------------------------|------------------------|
|----------------------------|------------------------|
|--9--------------------7----|-----7--9---------------|
|--9--------------------7----|-----7--9---------------|
|--7--------------------5----|-----5--7---------------|
|----------------------------|------------------------|


 Guitar Solo III
  &
  Gtr I
|-15p12--------15p12-------15p12-------15p12-------|
|-------15p=12-------15p12-------15p12-------15p12-|
|--------------------------------------------------|
|--------------------------------------------------|
|--------------------------------------------------|
|--------------------------------------------------|
|
| Gtr II
|               PM---------------------|
|--------------------------------------------------|
|--------------------------------------------------|
|--9----(9)----------------------------------------|
|--9----(9)-----------------------------------5----|
|--7----(7)-----------------------------------5----|
|---------------0-----0-----0-----0-----0-----3----|

|-15p12-------15p12-------15p12-------15p12-------|
|-------15p12-------15p12-------15p12-------15p12-|
|-------------------------------------------------|
|-------------------------------------------------|
|-------------------------------------------------|
|-------------------------------------------------|
|
|-------------------------------------------------|
|-------------------------------------------------|
|--------------5----------------------------------|
|--------5-----5----------------------------------|
|--------5-----3----------------------------------|
|--------3----------------------------------------|

|-------12--(12)-15p12-14p12-------------------------------|
|-15p12----------------------15h17-14-(14)-12-(12)---------|
|--------------------------------------------------14-(14)-|
|----------------------------------------------------------|
|----------------------------------------------------------|
|----------------------------------------------------------|
|
|                 PM-----------------------|
|----------------------------------------------------------|
|----------------------------------------------------------|
|--2----(2)-----------------------------------------7------|
|--2----(2)-----------------------------------------7------|
|--0----(0)-------0-----0-----0-----0-------0-------5------|
|----------------------------------------------------------|
                          ~~~~
|---------------------------------|
|-------------15------------------|
|-14b16-(14)-(14)-14b16-(14)---11-|
|---------------------------------|
|---------------------------------|
|---------------------------------|
|
|---------------------------------|
|---------------------------------|
|---------7----9------------------|
|---------7----9------------------|
|---------5----7------------------|
|---------------------------------|

|---------------------------------------------------------------|
|---------------------------------------------------------------|
|-11h12p11--------11-(11)-12-(12)-12p11---------11-(11)-12-(12)-|
|----------14p=12-----------------------14-(14)-----------------|
|---------------------------------------------------------------|
|---------------------------------------------------------------|
|
|                  PM---------------------------|
|---------------------------------------------------------------|
|---------------------------------------------------------------|
|--9-------(9)--------------------------------------------------|
|--9-------(9)-------------------------------------------5------|
|--7-------(7)-------------------------------------------5------|
|------------------0-------0-------0-----0-------0-------3------|

                                       ~~~~
|----------------------------------------------|
|----------------------------------------------|
|-14-(14)-12-(12)-14-(14)-14b16-(14)-(14)---12-|
|----------------------------------------------|
|----------------------------------------------|
|----------------------------------------------|
|
|----------------------------------------------|
|----------------------------------------------|
|------------------5---------------------------|
|----------5-------5---------------------------|
|----------5-------3---------------------------|
|----------3-----------------------------------|

|--------------------------------------------------------------|
|--------------------------------------------------------------|
|-14p12--------------------------------------------------------|
|-------14--(14)-12-(12)-14-(14)-14-12-------------------------|
|--------------------------------------14-(14)-12-(12)-14-(14)-|
|--------------------------------------------------------------|
|
|                 PM---------------------------|
|--------------------------------------------------------------|
|--------------------------------------------------------------|
|--2----(2)---------------------------------------------7------|
|--2----(2)---------------------------------------------7------|
|--0----(0)-------0-------0-------0-----0-------0-------5------|
|--------------------------------------------------------------|
                ~~~~
|---------------------|
|---------------------|
|---------------------|
|---------------------|
|-14-12---------------|
|-------15-12-(12)----|
|
|---------------------|
|---------------------|
|-----7--9------------|
|-----7--9------------|
|-----5--7------------|
|---------------------|

   Pre-Chorus
                                         ~
||-----------|----------|-----------|----------||
||o----------|----------|-----------|---------o||
||--7--------|-5--------|-9-------7-|--7-9-----||
||--7--------|-5--------|-9---------|----------||
||o-5--------|-3--------|-7---------|---------o||
||-----------|----------|-----------|----------||
|
||-----------|----------|-----------|----------||
||o----------|----------|-----------|---------o||
||--7--------|-5--------|-9-------7-|--7-9-----||
||--7--------|-5--------|-9-------7-|--7-9-----||
||o-5--------|-3--------|-7-------5-|--5-7----o||
||-----------|----------|-----------|----------||

   Out-Chorus
                                                   1.
    Gtr I
||------------------|-----------|-----------------|----------||
||o-----------------|-----------|-----------------|---------o||
||------7-------7-7-|--7-9------|-----7-------7-7-|--7-9-----||
||--7-9---9-7-9---7-|--7-9------|-7-9---9-7-9---7-|--7-9-----||
||o---------------5-|--5-7------|---------------5-|--5-7----o||
||------------------|-----------|-----------------|----------||
|
|   Gtr II
||------------------|-----------|-----------------|----------||
||o-----------------|-----------|-----------------|---------o||
||----------------7-|--7-9------|---------------7-|--7-9-----||
||------5-------5-7-|--7-9------|-----5-------5-7-|--7-9-----||
||o-5-7---7-5-7---5-|--5-7------|-5-7---7-5-7---5-|--5-7----o||
||------------------|-----------|-----------------|----------||

 Outro
  2.
  Gtrs I, II
                             PM------|
|--------------------|-------------------|---------------*|
|--------------------|-------------------|---------------*|
|--7-9-(9)-----------|-----------------7-|--7-9--(9)\----*|
|--7-9-(9)-5-4-3-(3)-|-2-(2)-----------7-|--7-9--(9)\----*|
|--5-7-(7)-5-4-3-(3)-|-2-(2)-----------5-|--5-7--(7)\----*|
|----------3-2-1--0--|-0-(0)-0-0-0-0-0---|---------------*|
Comments