Pennywise - Youll Never Make It Chords & Tabs

 

Youll Never Make It Chords & Tabs

Pennywise Chords & Tabs

Version: 1 Type: Bass Tab 0 ratings
1 star 2 stars 3 stars 4 stars 5 stars
comments

Youll Never Make It Bass Tab

Song: You'll Never Make It
Band: Pennywise
Album: Full Circle
tabbed by: Alberto zorrico3@yahoo.com



intro & verse
G:---------------------------------------------------
D:-------------------------2>--------------------2>--
A:--2>-5-------5-2>-5----5----2>-5-------5-2>-5>----- X 4
E:-------3>-5>--------3>-----------3>-5>-------------
[ Tab from: http://www.guitartabs.cc/tabs/p/pennywise/youll_never_make_it_btab.html ]
chorus
G:-----------------------------------------------2--
D:-----------------3-3-2-2-3-------------2-3-4-5----
A:-------2>-5-2>-5-----------5------2>-5------------ X 2
E:-3>-5>-----------------------3>-5-----------------

verse X 2
chorus

bridge  part 1                    part 2             part 3
G:-----------------|     ------------------------|------------
D:-----------3-----|     --------------------2>--|------------
A:--5>----2>---2>--| X 2 --5>-------0>-2>-5>-----|--2>--------
E:-----3>----------|     -----3>-0>--------------|-----3>-5>--

chorus
bridge part 3

Comments