Pennywise - Yesterdays Chords & Tabs

 

Yesterdays Chords & Tabs

Pennywise Chords & Tabs

Version: 3 Type: Tab 0 ratings
1 star 2 stars 3 stars 4 stars 5 stars
comments

Yesterdays Tab

BAND: PENNYWISE
SONG: YESTERDAYS
TABBER: VITOR ZERVELIS    alucardrato@yahoo.com.br

INTRO:

|------------------------------------------|     |----|
|------------------------------------------|     |----| only in the last time
|-12-11-12-14-12-14-16-1616161716-14-12-14-| x4  |-12-|
|------------------------------------------|     |----|
|-10-9--10-12-10-12-14-1414141514-12-10-12-|     |-10-|
|------------------------------------------|     |----|

  Gtr II
                                                          
|-----------------|----------------|----------------|-----------------|
|-----------------|----------------|----------------|-----------------|
|-----------------|-5-5-5-5-5-5-5-5|----------------|-----------------| x4
|--2-2-2-2-2-2-2-2|-5-5-5-5-5-5-5-5|-5-5-5-5-5-5-5-5|-4-4-4-4-5-5-5-5-|
|--2-2-2-2-2-2-2-2|-3-3-3-3-3-3-3-3|-5-5-5-5-5-5-5-5|-4-4-4-4-5-5-5-5-|
|--0-0-0-0-0-0-0-0|----------------|-3-3-3-3-3-3-3-3|-2-2-2-2-3-3-3-3-|

Verse:
  
                                                         
|-----------------|----------------|----------------|-----------------|
|-----------------|----------------|----------------|-----------------|
|-----------------|-5-5-5-5-5-5-5-5|----------------|-----------------| 
|--2-2-2-2-2-2-2-2|-5-5-5-5-5-5-5-5|-5-5-5-5-5-5-5-5|-4-4-4-4-5-5-5-5-|
|--2-2-2-2-2-2-2-0|-3-3-3-3-3-3-3-3|-5-5-5-5-5-5-5-5|-4-4-4-4-5-5-5-5-|
|--0-0-0-0-0-0-0-0|----------------|-3-3-3-3-3-3-3-3|-2-2-2-2-3-3-3-3-|
  ....................................................................
[ Tab from: http://www.guitartabs.cc/tabs/p/pennywise/yesterdays_tab_ver_3.html ]
                                                         
|-----------------|----------------|------------------|---------------|
|-----------------|----------------|------------------|---------------|
|-----------------|-5-5-5-5-5-5-5-5|------------------|---------------| 
|--2-2-2-2-2-2-2-2|-5-5-5-5-5-5-5-5|-5-5-5-5-5-5-5-5-5|-4-4-4-5-5-5-5-|
|--2-2-2-2-2-2-2-0|-3-3-3-3-3-3-3-3|-5-5-5-5-5-5-5-5-5|-4-4-4-5-5-5-5-|
|--0-0-0-0-0-0-0-0|----------------|-3-3-3-3-3-3-3-3-3|-2-2-2-3-3-3-3-|
  ....................................................

verse 2:

                                                          
|-----------------|----------------|----------------|-----------------|
|-----------------|----------------|----------------|-----------------|
|-----------------|-5-5-5-5-5-5-5-5|----------------|-----------------| 
|--2-2-2-2-2-2-2-2|-5-5-5-5-5-5-5-5|-5-5-5-5-5-5-5-5|-4-4-4-4-5-5-5-5-| x2
|--2-2-2-2-2-2-2-2|-3-3-3-3-3-3-3-3|-5-5-5-5-5-5-5-5|-4-4-4-4-5-5-5-5-|
|--0-0-0-0-0-0-0-0|----------------|-3-3-3-3-3-3-3-3|-2-2-2-2-3-3-3-3-|

chorus:
  
|----------------|-------------------------|-------------------|-----------------|-----|
|----------------|-------------------------|-------------------|-----------------|-----|
|-9-9-9-9-9-9-9-9|-12-12-12-12-12-12-12-12-|-------------------|-7-7-7-7-7-7-7-7-|-7-8-|
|-9-9-9-9-9-9-9-9|-12-12-12-12-12-12-12-12-|-5-5-5-5-5-5-5-5-5-|-7-7-7-7-7-7-7-7-|-7-8-| x2
|-7-7-7-7-7-7-7-7|-10-10-10-10-10-10-10-10-|-5-5-5-5-5-5-5-5-5-|-5-5-5-5-5-5-5-5-|-5-6-|
|----------------|-------------------------|-3-3-3-3-3-3-3-3-3-|-----------------|-----|

INTRO: X2

VERSE:

VERSE 2: X2

CHORUS: X2

INTRO: X4

ONLY BASS AND PIANO HERE....GUITAR ENDS |----------------|----------------|
					|----------------|----------------|
					|----------------|----------------|
					|-5-5-5-5-5-5-5-5|-4-4-4-4-5-5-5-5|
					|-5-5-5-5-5-5-5-5|-4-4-4-4-5-5-5-5|
					|-3-3-3-3-3-3-3-3|-2-2-2-2-3-3-3-3|
                                         ................
CHORUS: 2X

INTRO: 4X


 
LOVE PENNYWISE..........
Comments