Pennywise - Yesterdays Chords & Tabs

 

Yesterdays Chords & Tabs

Pennywise Chords & Tabs

Version: 1 Type: Tab 0 ratings
1 star 2 stars 3 stars 4 stars 5 stars
comments

Yesterdays Tab

Pennywise- "Yesterdays" - From the Ashes
I corrected it again from my dyslexic mistakes, 100% correct.
Email: BugsyPunk85@aol.com


[ Tab from: http://www.guitartabs.cc/tabs/p/pennywise/yesterdays_tab.html ]
Intro
----------------------7-8h-7----------
----8-8--7-8--10--8-10------10-8-10---
--------------------------------------
--------------------------------------
--------------------------------------
--------------------------------------
Verse
---------------------------------
---------------------------------
-------------5-------------------
----2--------5-8xs--5-------4----
----2--8xs---3------5-8xs---4-8xs
----0---------------3-------2-----

palm mute first then open it up into heavy distortion for both verse and chorus

Chorus
--------------------------------
--------------------------------
----9------5-------------7------
----9-8xs--5-8xs--5------7-8xs--
----7------3------5-8xs--5------
------------------3-------------

Intro/End thing on ---------------------
                   ---10-8-10/8_____----
                   ---------------------
                   ---------------------
                   ---------------------
		   ---------------------
Comments