Pennywise - Yersterday Chords & Tabs

 

Yersterday Chords & Tabs

Pennywise Chords & Tabs

Version: 1 Type: Tab 1 rating
1 star 2 stars 3 stars 4 stars 5 stars
comments

Yersterday Tab

   
Tabbed by- Aaron Myers.
standard tuning.
E
B
G
D
A
E

-------------------------------------------------------
------8-7-8-10-8-10 12-12-12\13/12-10-8-10------------
-----------------------------------------------------
---------------------------------------------------
------------------------------------------------
5x    its so freaking easy..


[ Tab from: http://www.guitartabs.cc/tabs/p/pennywise/yersterday_tab.html ]
---------------------------------------¦-----------¦
---------------------------------------¦-----------¦
---------------------------------------¦-----------¦
------------5-5-5-5-----------7-7-7-7--¦--7-7-7\8--¦
---2-2-2-2--3-3-3-3--5-5-5-5--5-5-5-6--¦--5-5-5\6--¦
---0-0-0-0-----------3-3-3-3-----------¦-----------¦
pm2x                                    2nd time play this open.


---------------------------------------¦-----------¦
---------------------------------------¦-----------¦
---------------------------------------¦-----------¦
---9-9-9-9--5-5-5-5-----------7-7-7-7--¦--7-7-7\8--¦
---7-7-7-7--3-3-3-3--5-5-5-5--5-5-5-5--¦--5-5-5\6--¦
---------------------3-3-3-3-----------¦-----------¦
                                       every other time


-------------------------------------------------------
------8-7-8-10-8-10 12-12-12\13/12-10-8-10----(8)-----
-----------------------------------------------------
---------------------------------------------------
-------------------------------------------------
thats it guys. its freakin' easy and its a bad ass song. 
Comments