Pennywise - Whos On Your Side Chords & Tabs

 

Whos On Your Side Chords & Tabs

Pennywise Chords & Tabs

Version: 1 Type: Tab 0 ratings
1 star 2 stars 3 stars 4 stars 5 stars
comments

Whos On Your Side Tab

Intro:

Guitar 1:                                Guitar 2:

e|-------------------------------------||---------||------|
b|-------------------------------------||o-------o||------|
g|--9-16-14-13-7-9-4-16-14-13-7-9-4-9--||---------||------|
d|-------------------------------------||--2-5-4--||------|
a|--7-14-12-11-5-7-2-14-12-11-5-7-2-7--||o-2-5-4-o||------|
E|-------------------------------------||--0-3-2--||------|

Verse 1:

Guitar 1:                             

e||-----------------------------------||------------------|
b||o---------------------------------o||------------------|
g||--9-----7---------9-----7----------||------------------|
d||--9-2-5-7-7-9-7-9-9-2-5-7-7-9-7-9--||------------------|
a||o-7-2-5-5-7-9-7-9-7-2-5-5-7-9-7-9-o||------------------|
E||----0-3---5-7-5-7---0-3---5-7-5-7--||------------------|

Guitar 2:                Verse 2:
[ Tab from: http://www.guitartabs.cc/tabs/p/pennywise/whos_on_your_side_tab.html ]
e|--------------------|-----------|-----------|-----------|
b|--------------------|-----------|-----------|-----------|
g|--7-9-9-7-9-7-9-11--|------7-4--|------7-4--|-----------|
d|--------------------|--2-5-7-4--|--2-5-7-4--|-----------|
a|--5/7-7-5-7-5-7-9---|--2-5-5-2--|--2-5-5-2--|-----------|
E|--------------------|--0-3------|--0-3------|-----------|
                       pm---------

Verse 3:

Guitar 1:                   Guitar 2:              End on:

e|-------------------------|---------------|-------|------|
b|-------------------------|---------------|-------|------|
g|--9-7-9-9-7-9-12-9-9-11--|--7---7---7-9--|--5-7--|--9---|
d|-------------------------|--7-7-7-7-7-9--|--5-7--|--9---|
a|--7-5-7-7-5-7-10-7-7-9---|--5-7-5-7-5-7--|--3-5--|--7---|
E|-------------------------|----5---5------|-------|------|
                                            pm-----

Order:

Intro
Verse 1
Verse 2
Verse 1
Verse 2
Verse 1
Verse 3
Verse 1
Verse 1
Comments