Pennywise - Waste Of Time Chords & Tabs

 

Waste Of Time Chords & Tabs

Pennywise Chords & Tabs

Version: 2 Type: Tab 0 ratings
1 star 2 stars 3 stars 4 stars 5 stars
comments

Waste Of Time Tab

   
From: Rambozo 
Subject: Waste of Time BY pennywise

"Waste Of Time" off of "About Time"

intro:
e-|-----------------------------------------------------------------|
B-|-----------------------------------------------------------------|
G-|-----6-6-------------6-6-------6-----6-6---------5-5-5-5-5-5-5-5-|
D-|-3-3-6-6-6-6-8-8-3-3-6-6-6-6-8-6-3-3-6-6-6-6-8-8-5-5-5-5-5-5-5-5-|
A-|-3-3-4-4-6-6-8-8-3-3-4-4-6-6-8-4-3-3-4-4-6-6-8-8-3-3-3-3-3-3-3-3-|
E-|-1-1-----4-4-6-6-1-1-----4-4-6---1-1-----4-4-6-6-----------------|
repeat once;

[ Tab from: http://www.guitartabs.cc/tabs/p/pennywise/waste_of_time_tab_ver_2.html ]
Verse:
e-|-------------------------------------------------------------------------
B-|-------------------------------------------------------------------------
G-|-----6-6-------------6-6-------6-----6-6-------------6-6-5-5-5-5-5-5-5-5-
D-|-3-3-6-6-6-6-8-8-3-3-6-6-6-6-8-6-3-3-6-6-6-6-8-8-3-3-6-6-5-5-5-5-5-5-5-5-
A-|-3-3-4-4-6-6-8-8-3-3-4-4-6-6-8-4-3-3-4-4-6-6-8-8-3-3-4-4-3-3-3-3-3-3-3-3-
E-|-1-1-----4-4-6-6-1-1-----4-4-6---1-1-----4-4-6-6-1-1---------------------

e-|-----------------------------------------------------------------|
B-|-----------------------------------------------------------------|
G-|-----6-6-------------6-6-------6-----6-6---------5-5-5-5-5-5-5-5-|
D-|-3-3-6-6-6-6-8-8-3-3-6-6-6-6-8-6-3-3-6-6-6-6-8-8-5-5-5-5-5-5-5-5-|
A-|-3-3-4-4-6-6-8-8-3-3-4-4-6-6-8-4-3-3-4-4-6-6-8-8-3-3-3-3-3-3-3-3-|
E-|-1-1-----4-4-6-6-1-1-----4-4-6---1-1-----4-4-6-6-----------------|

chorus:
e-|----------------------------------------------------------------|
B-|----------------------------------------------------------------|
G-|-------6-8-6-----------6-8-6-----------6-8-6-6-6-5-5-8-8-10-----|
D-|-3-3-8-6-8-6-8-3-3-3-8-6-8-6-8-3-3-3-8-6-8-6-6-6-5-5-8-8-10-3-3-|
A-|-3-3-8-4-6-4-8-3-3-3-8-4-6-4-8-3-3-3-8-4-6-4-4-4-3-3-6-6--8-3-3-|
E-|-1-1-6-------6-1-1-1-6-------6-1-1-1-6----------------------1-1-|

the palm mute part is basically the same as the verse.... its got a few 
differences but hey... its not hard to figure out...
transcribed by rambozo jjm@nucleus.com
Comments