Pennywise - Wake Up Chords & Tabs

 

Wake Up Chords & Tabs

Pennywise Chords & Tabs

Version: 1 Type: Tab 0 ratings
1 star 2 stars 3 stars 4 stars 5 stars
comments

Wake Up Tab

   
pennywise-wake up
tabbed by Wobbler

e|-----------------------------------------------------------|
B|-----------------------------------------------------------|
G|-----------------------------------------------------------|
D|-14-141414141414\12-121212121212\11-111111111111/14-141414-|
A|-12-121212121212\10-101010101010\-9--9-9-9-9-9-9/12-121212-|
E|-----------------------------------------------------------|

e|----------------------------------------------------------------|
B|----------------------------------------------------------------|
G|-------------------------------------------------------(14)-----|
D|-14-141414141414\12-121212121212\11-111111111111/14-x----(14)---|
A|-12-121212121212\10-101010101010\-9--9-9-9-9-9-9/12--(17)-------|
E|----------------------------------------------------------------|

e|----------------------------------------------------------|
B|----------------------------------------------------------|
G|---------9/10-10101010/12-5-555/7\2-222-2-----------------|
D|-x7-77-7-9/10-10101010/12-5-555/7\2-222-2-----------------|
A|-x7-77-7-7/-8--8-8-8-8/10-3-333/5\0-000-0-----------------|
E|-x5-55-5--------------------------------------------------|

e|----------------------------------------------------------|
B|----------------------------------------------------------|
G|---------9/10-10101010/12-5-555/7\2--\\\-pickslide-\\\----|
D|-x7-77-7-9/10-10101010/12-5-555/7\2-----------------------|
A|-x7-77-7-7/-8--8-8-8-8/10-3-333/5\0-----------------------|
E|-x5-55-5--------------------------------------------------|

e|----------------------------------------------------------|
B|----------------------------------------------------------|
G|---------9/10-10101010/12-5-555/7\2-222-2-----------------|
D|-x7-77-7-9/10-10101010/12-5-555/7\2-222-2------x2---------|
A|-x7-77-7-7/-8--8-8-8-8/10-3-333/5\0-000-0-----------------|
E|-x5-55-5--------------------------------------------------|

e|----------------------------------------------------------|
B|----------------------------------------------------------|
G|---------9/10-10101010-12\5-555/7\2-222-2-----------------|
D|-x7-77-7-9/10-10101010-12\5-555/7\2-222-2-----------------|
A|-x7-77-7-7/-8--8-8-8-8-10\3-333/5\0-000-0-----------------|
E|-x5-55-5--------------------------------------------------|
pm|   .. .       .......      ...     ... .

e|----------------------------------------------------------|
B|----------------------------------------------------------|
G|---------9/10-10101010-12\5555/7\222-2--------------------|
D|-x7-77-7-9/10-10101010-12\5555/7\222-2--------------------|
A|-x7-77-7-7/-8--8-8-8-8-10\3333/5\000-0--------------------|
E|-x5-55-5--------------------------------------------------|
pm|   .. .       .......

e|-----------------------------------------------------------|
B|-----------------------------------------------------------|
G|-5-5-555/7-7-777-14-1414141414\1212-12\--------------------|
D|-5-5-555/7-7-777-14-1414141414\1212-12\--------x2----------|
A|-3-3-333/5-5-555-12-1212121212\1010-10\--------------------|
E|-----------------------------------------------------------|

E|-----------------------------------------------------|
B|-----------------------------------------------------|
G|-5-5-55-7-7-77--------99-999-1010-101010-------------|
D|-5-5-55-7-7-77-7-7-77-99-999-1010-101010-1010-101010-|
A|-3-3-33-5-5-55-7-7-77-77-777-8-8--8-8-8--1010-101010-|
E|---------------5-5-55---------------------8-8--8-8-8-|

e|-----------------------------------|
B|-----------------------------------|
G|---------------------(14)----------|
D|-/14-14-14-14-14-x------(14)-------|
A|-/14-14-14-14-14--(17)-------------|
E|-/12-12-12-12-12-------------------|

e|-----------------------------------------------------------|
B|-----------------------------------------------------------|
G|-----------------------------------------------------------|
D|-14-141414141414\12-121212121212\11-111111111111/14-141414-|
A|-12-121212121212\10-101010101010\-9--9-9-9-9-9-9/12-121212-|
E|-----------------------------------------------------------|

e|--------------------------------------------------------------|
B|--------------------------------------------------------------|
G|--------------------------------------------------------------|
D|-14-141414141414\12-121212121212\11-111111111111/14-x\--------|
A|-12-121212121212\10-101010101010\-9--9-9-9-9-9-9/12-----------|
E|--------------------------------------------------------------|

e|----------------------------------------------------------|
B|----------------------------------------------------------|
G|---------9/10-10101010/12-5-555/7\2-222-2-----------------|
D|-x7-77-7-9/10-10101010/12-5-555/7\2-222-2------x2---------|
A|-x7-77-7-7/-8--8-8-8-8/10-3-333/5\0-000-0-----------------|
E|-x5-55-5--------------------------------------------------|
[ Tab from: http://www.guitartabs.cc/tabs/p/pennywise/wake_up_tab.html ]
e|----------------------------------------------------------|
B|----------------------------------------------------------|
G|---------9/10-10101010-12\5-555/7\2-222-2-----------------|
D|-x7-77-7-9/10-10101010-12\5-555/7\2-222-2-----------------|
A|-x7-77-7-7/-8--8-8-8-8-10\3-333/5\0-000-0-----------------|
E|-x5-55-5--------------------------------------------------|
pm|   .. .       .......      ...     ... .

e|----------------------------------------------------------|
B|----------------------------------------------------------|
G|---------9/10-10101010-12\5555/7\2-\\\-pickslide-\\\------|
D|-x7-77-7-9/10-10101010-12\5555/7\2------------------------|
A|-x7-77-7-7/-8--8-8-8-8-10\3333/5\0------------------------|
E|-x5-55-5--------------------------------------------------|
pm|   .. .       .......

e|-----------------------------------------------------------|
B|-----------------------------------------------------------|
G|-5-5-555/7-7-777-14-1414141414\1212-12\--------------------|
D|-5-5-555/7-7-777-14-1414141414\1212-12\--------x2----------|
A|-3-3-333/5-5-555-12-1212121212\1010-10\--------------------|
E|-----------------------------------------------------------|

E|-----------------------------------------------------|
B|-----------------------------------------------------|
G|-5-5-55-7-7-77--------99-999-1010-101010-------------|
D|-5-5-55-7-7-77-7-7-77-99-999-1010-101010-1010-101010-|
A|-3-3-33-5-5-55-7-7-77-77-777-8-8--8-8-8--1010-101010-|
E|---------------5-5-55---------------------8-8--8-8-8-|

e|-----------------------------------|
B|-----------------------------------|
G|---------------------(14)----------|
D|-/14-14-14-14-14-x------(14)-------|
A|-/14-14-14-14-14--(17)-------------|
E|-/12-12-12-12-12-------------------|

e|-----------------------------------------------------------|
B|-----------------------------------------------------------|
G|-----------------------------------------------------------|
D|-14-141414141414\12-121212121212\11-111111111111/14-141414-|
A|-12-121212121212\10-101010101010\-9--9-9-9-9-9-9/12-121212-|
E|-----------------------------------------------------------|

e|-------------------------------------------------------------------------|
B|-------------------------------------------------------------------------|
G|-------------------------------------------------------------------------|
D|-14-141414141414\12-121212121212\11-111111111111\\~14-----\\\pickslide\\\|
A|-12-121212121212\10-101010101010\-9--9-9-9-9-9-9\\~~~-12-----------------|
E|-------------------------------------------------------------------------|

during the solo...
e|----------------------------------------------------------|
B|----------------------------------------------------------|
G|---------9/10-10101010/12-5-555/7\2-222-2-----------------|
D|-x7-77-7-9/10-10101010/12-5-555/7\2-222-2------x4---------|
A|-x7-77-7-7/-8--8-8-8-8/10-3-333/5\0-000-0-----------------|
E|-x5-55-5--------------------------------------------------|

e|-----------------------------------------------------------|
B|-----------------------------------------------------------|
G|-5-5-555/7-7-777-14-1414141414\1212-12\--------------------|
D|-5-5-555/7-7-777-14-1414141414\1212-12\--------x2----------|
A|-3-3-333/5-5-555-12-1212121212\1010-10\--------------------|
E|-----------------------------------------------------------|

E|-----------------------------------------------------|
B|-----------------------------------------------------|
G|-5-5-55-7-7-77--------99-999-1010-101010-------------|
D|-5-5-55-7-7-77-7-7-77-99-999-1010-101010-1010-101010-|
A|-3-3-33-5-5-55-7-7-77-77-777-8-8--8-8-8--1010-101010-|
E|---------------5-5-55---------------------8-8--8-8-8-|

e|-----------------------------------|
B|-----------------------------------|
G|---------------------(14)----------|
D|-/14-14-14-14-14-x------(14)-------|
A|-/14-14-14-14-14--(17)-------------|
E|-/12-12-12-12-12-------------------|

e|-----------------------------------------------------------|
B|-----------------------------------------------------------|
G|-----------------------------------------------------------|
D|-14-141414141414\12-121212121212\11-111111111111/14-141414-|
A|-12-121212121212\10-101010101010\-9--9-9-9-9-9-9/12-121212-|
E|-----------------------------------------------------------|

e|----------------------------------------------------------|
B|----------------------------------------------------------|
G|-------------------------------------9--------------------|
D|-14-141414141414\12-12121212-7777777-9--------------------|
A|-12-121212121212\10-10101010-7777777-7--------------------|
E|-----------------------------5555555----------------------|
pm|                            .......

thats it! maybe sometimes the strumming isnt correct, but i think its right!
comments,mistakes,suggestions...el_diablo7th@freenet.de
Comments