Pennywise - Wake Up Chords & Tabs

 

Wake Up Chords & Tabs

Pennywise Chords & Tabs

Version: 1 Type: Bass Tab 0 ratings
1 star 2 stars 3 stars 4 stars 5 stars
comments

Wake Up Bass Tab

Song:Wake Up
Band:Pennywise
Album:Punk O Rama volume 3
tabbed by:Nick Mighall

The other tab of this song was completely wrong,so I have
put up my version which I think is a lot more right than the
last one.

/ means slide up
\ means slide down

Listen to cd for the rythem


Intro part 1

G:-------------------------------------------------------------------------
D:-7777777/17-17-17-17-17-17-17-17\-12-12-12-12-12/19-19-19-19-19-19-19-19-
A:-------------------------------------------------------------------------
E:-------------------------------------------------------------------------

Intro part 2

G:---------------------------------------------------------------
D:-7777777/17-17-17-17-17-17-17-17-00000007----------------------
A:---------------------------------------------------------------
E:---------------------------------------------------------------

Verse

G:---------------------------------------------------------------
D:---------------------------------------------------------------
A:-00000-7-888888-10-10------3-----------------------------------
E:----------------------3333---55555555--------------------------

Chorus part 1

G:------------------------------------------------------------------
D:-----------------7-7-7-7-7-7-7-7----------------------------------
A:-3-3-3-3-5-5-5-5-----------------3-3-3-3-5-5-5-5/12-10-7-6-5------
E:-------------------------------------------------------------765--

Chorus part 2
[ Tab from: http://www.guitartabs.cc/tabs/p/pennywise/wake_up_btab.html ]
G:---------------------------------------------------------------
D:---------------------------------------------------------------
A:-3-3-3-3-5-5-5-5-----------------3-3-3-3-3-5-5-5-5-7-7-7-7-7---
E:-----------------3-3-3-3-5-5-5-5-------------------------------

Bridge part 1

G:---------------------------------------------------------------
D:-7-7-7-7-5-5-5-5--------/7-5-----7-7-7-7-5-5-5-5---------------
A:-----------------5-5-5-5-----7-6-----------------5-5-76--------
E:--------------------------------------------------------75-----

Bridge part 2

G:----------------------------------------------------------------------
D:-7-7-7-7-5-5-5-5---------------------7-7-7-7-5-5-5-5------------------
A:-----------------5-5-5-5/12-12-12-12-----------------5-5-5-5-0-0-0-0--
E:----------------------------------------------------------------------

End

G:-----------------------------------------------------------------
D:-7-7-7-7-5-5-5-5--------/7-5----/7-7-7-7-5-5-5-5-----------------
A:-----------------5-5-5-5-----7-6-----------------55555550--------
E:-----------------------------------------------------------------

*Order*
Intro part 1    x1
Intro part 2    x1
Verse           x6
Chorus part 1   x1
Chorus part 2   x1
Intro part 1    x1
Intro part 2    x1
Verse           x4
Chorus part 1   x1
Chorus part 2   x1
Bridge part 1   x1
Bridge part 2   x1
Verse           x4
Chorus part 1   x1
Chorus part 2   x1
End             x1

Well there you have it!
I hope this tab help you out.Questions,comments,corrections? 
Nickmighall182@hotmail.com

Comments